Guitar Tabs, Chords and Lyrics
Server problems seems to be fixed. Chordie has been experiencing problems with songs disappearing. These issues now seems to be fixed, but still verifying the fix. If you find anything strange, please email admin@chordie.com.


Give Myself Away  Rebecca St. James

Rebecca St.James
CD: Pray
c1998 Bibbitsong/Up in the Mix Music
Tabbed: Steve Cruickshank
(postlambjam@hotmail.com)
Intro: G#m F# E Ebm C#m F#
VERSE 1
[G#m] [F#] [E] [Ebm] [C#m]  
[F#]  
[G#m] [F#] [E] [Ebm] [C#m]  
[Eb]  
CHORUS
[G#m] [B] [C#m]  
[G#m] [B] [C#m]  
[G#m] [B] [C#m]  
[E] [B]  
VERSE 2
[G#m] [F#] [E] [Ebm] [C#m]  
[F#]  
[G#m] [F#] [E] [Ebm] [C#m]  
[Eb]  
REPEAT CHORUS
Solo:
 
 e--------------------------------------------------------------------------
 B--------------------------------------------------------------------------
 G-----------------------------------------------------------3--------------
 D---6h9-6---------------------------------------------4-4h6---6-4--4h6-/8--
 A---------9h11-------------6-----------4-6\--------------------------------
 E--------------11---9--7h9---7---4-7-4------4---6\2------------------------

[G#m] [F#] [E] [Ebm] [C#m] [F#] 
 
 e---13\-------9\-------7\--------------------------------------------------
 B---12\--7----7\--4----7\--0------------------------------14-14------14-14-
 G--------6--------4--------1----8\--4------------------6/-12-12---6/-12-12-
 D-------------------------------9\--6~~-----6h9p6--------------------------
 A-----------------------------------------9--------------------------------
 E--------------------------------------------------------------------------

[G#m] [F#] [E] [Ebm] [C#m] [Eb] 
[G#m] [F#] [E] [Ebm] [C#m] [Eb]  
REPEAT CHORUS
CHORDS
======================
[G#m] [466444]  
[F#]E [244322]07999x
Ebm x68876
C#m x46654
Eb x6888x or x65343
B 799877 or x24442

Important: The song above is NOT stored on the Chordie server. The original song is hosted at www.christianguitar.org. Chordie works as a search engine and provides on-the-fly formatting. Chordie does not index songs against artists'/composers' will. To remove this song please click here.

Text color:
Chord color:
Chord grids: 
Font size:    
Page size: 

B C#m E Eb Ebm F# G#m
Rate #1 of 1 versions

Login - add to songbook

SHARE PAGE  




You need to log in to post comments