Guitar Tabs, Chords and Lyrics
Server problems seems to be fixed. Chordie has been experiencing problems with songs disappearing. These issues now seems to be fixed, but still verifying the fix. If you find anything strange, please email admin@chordie.com.


Here With Me  MxPx

song: Here With Me
album: The Ever Passing Moment
band: MxPx
transcriber: Stephen M. Pruitt (acousticseagull_s6@hotmail.com)
This tab is completely accurate!
Chords Used In This Song:
F# - 244xxx
D# - x688xx
B - x244xx
C# - x466xx
F* - x81010xx
F#* - x91111xx
Intro:
F# (hold)
 
 e -------------------------------------------
 b -------------------------------------------
 g -------------------------------------------
 d -------------------------------------------
 a -1-2-4-----1-4-2-1-----1---------1-4-2-1---
 E -------2-4---------2-4---1-2-2-4---------2- 

Verse 1:
[F#]would it be too m[D#]uch to ask, to much to fast
[B]Im all alone, and i [C#]want you here with me[F#]
[D#]Im not the best at romance, ive had my chance
[B]I dont want much, but I [C#]want you here with me[F#]
Chorus:
B C# F# x F# x F# x F# x
I want you here with me
B C# D# F* F#*
why cant you just see?
B C# F# (hold)
i want you here with me
Verse 2
[F#]im on the other[D#]side now, please help me out
[B]catch the next plane, cause i [C#]want you here with me[F#]
[D#]could i be out of my head, pronounced brain dead
[B]i think with my heart and i [C#]want you here with me[F#]
Chorus:
B C# F# x F# x F# x F# x
I want you here with me
B C# D# F* F#*
why cant you just see?
B C# F# (hold)
i want you here with me
Solo:
 
 e ----------------------------
 b ----------------------------
 g -------4-----3--------------
 d ---------4----4-3-4-3-------
 a -1-2-4-----2----------4-2-1-
 E ----------------------------
 e -------------------------------
 b -------------------------------
 g -4-----3-----------------------
 d ---4-----4-3-4---6-6-6-6s8-8-8-
 a -----2-------------------------
 E -------------------------------
 e --------------------------------------------------------
 b --------------------------------------------------------
 g -6-6-6-10-10-10-13-13-13-10-11--11-11-11-10-10-10-10h11-
 d --------------------------------------------------------
 a --------------------------------------------------------
 E -------------------------------------------------------- 

Chorus:
B C# F# x F# x F# x F# x
I want you here with me
B C# D# F* F#*
why cant you just see?
B C# F# (hold)
i want you here with me
Ending (all are strummed once):
 
 B - C# - F# - B - C# - D# - F* - F#* - B - C# - F# (hold)


Important: The song above is NOT stored on the Chordie server. The original song is hosted at www.christianguitar.org. Chordie works as a search engine and provides on-the-fly formatting. Chordie does not index songs against artists'/composers' will. To remove this song please click here.

Text color:
Chord color:
Chord grids: 
Font size:    
Page size: 

B C# D# F#
Rate #1 of 4 versions

Jango Player

Login - add to songbook

SHARE PAGE  



You need to log in to post comments