Guitar Tabs, Chords and Lyrics
Major upgrade!! After one year development the new version of Chordie is now online! Please give feedback.


Know You Better  Reality Check

CD: Reality Check
c1997 Ariose Music
Tab by Steve Cruickshank
(postlambjam@hotmail.com)
This here song is TUNED DOWN HALF A STEP (Eb Ab Db Gb Bb eb, low to high),
and uses a lot of wah-wah pedal
Intro: C
Verse:
(C D) x3
[C] [D/F#]  
Chorus:
(G D Em7 C) x4
Chorus lead part with wah
 
 eb--------------------------
 Bb--------------------------
 Gb--------------------------
 Db---4/5-5--5-5-------------
 Ab--------------------------
 Eb--------------------------

(Verse)
Bridge:
[C] [D]  
[C] [D/F#]  
(Chorus)
Outro (with wah):
 
 eb--------------------------------------------------------------------
 Bb-------------8--7---8--7-----------------8-8----10-10---------------
 Gb---7----9----7--7---7--7----9-9----------9-9----11-11---------------
 Db---------------------------------9-7--------------------------------
 Ab--------------------------------------------------------------------
 Eb--------------------------------------------------------------------

[C] [D] [C] [D] [C] [D] [C] [D] 
 
 eb--------------------------------------------------------------------
 Bb---12-12------12-----8-8----7-7----12-8----8-7---12-8----10-10------
 Gb----9--9----9--9-----9-9----7-7-----9-9----7-7----9-9----11-11------
 Db--------------------------------------------------------------------
 Ab--------------------------------------------------------------------
 Eb--------------------------------------------------------------------

[C] [D] [C] [D] [C] [D] [C] [D] 
Chords
G 320033
D xx0232
Em7 022033
C x32010
D/F# 200232

Important: The song above is NOT stored on the Chordie server. The original song is hosted at www.christianguitar.org. Chordie works as a search engine and provides on-the-fly formatting. Chordie does not index songs against artists'/composers' will. To remove this song please click here.

Text color:
Chord color:
Chord grids: 
Font size:    
Page size: 

C D D/F#
Rate #1 of 2 versions

Login - add to songbook

SHARE PAGE  




You need to log in to post comments