Guitar Tabs, Chords and Lyrics
Server problems seems to be fixed. Chordie has been experiencing problems with songs disappearing. These issues now seems to be fixed, but still verifying the fix. If you find anything strange, please email admin@chordie.com.


Wait for You   Luna Halo

 
 g-88888888----------8868868---------
 d-88888888-88-66666-8868868-88-66666 repeat 4x
 a-66666666-88-66666-6646646-88-66666
 E----------66-44444---------66-44444

 


 


 Verses:


 

 
 b-420--------------420-----
 g----310h1------------310h1
 d---------3/8\6/9\8--------
 b-420-------------------------
 g----310h1--------------------
 d---------3/8\6/9/11-8h9p8h9p8
 b-420--------------------------------------
 g----310h1------------431-431-431-431-43-3v
 d---------3/8\6----------------------------
 a---------------2-1------------------------

 


 


 Chorus:


 

 
 g-----333-888-6666-

 


 d-444-333-888-6666-


 [a-444-111-666-4444-]  


 

 
 E-222--------------
 g-----333-4444444-

 


 [d-444-333-4444444-]  


 [a-444-111-2222222-]  


 

 
 E-222-------------
 g-----333-888-666- g--------4-4444444
 d-444-333-888-666- d6666666-4-4444444 repeat 2x
 a-444-111-666-444- a6666666-2-2222222
 E-222------------- E4444444----------

 


 


 verse


 repeat chorus


 


 Bridge: GUITAR 1 2:29


 

 
 e----------------9----------------99-11--
 b-67-67-67-67-67--11-11-11-13-11-9-----11

 


 


 2:39


 

 
 e-99---------- repeat 4x
 b---11-9-7-6-7

 


 


 GUITAR 2 2:39


 

 
 e------------------------
 b-76-79-76-77-76-79-76-77
 g-88888888----------8868868---------
 d-88888888-88-66666-8868868-88-66666
 a-66666666-88-66666-6646646-88-66666 Repeat 8x
 E----------66-44444---------66-44444


Important: The song above is NOT stored on the Chordie server. The original song is hosted at www.christianguitar.org. Chordie works as a search engine and provides on-the-fly formatting. Chordie does not index songs against artists'/composers' will. To remove this song please click here.

This song is displayed as text-only. Transposing and tuning is only available for chordpro-songs.
Rate #1 of 1 versions

Jango Player

Login - add to songbook

SHARE PAGE  




You need to log in to post comments