Guitar Tabs, Chords and Lyrics
Major upgrade!! After one year development the new version of Chordie is now online! Please give feedback.


Alive   P.O.D.

 
 [---------------------------------------]
 [---------------------------------------]
 [-------------------3-3-3--3-3-3-3------]
 [0-0-0-3-0--5-5-5-5-3-3-3--3-3-3-3-3-3-3]
 [0-0-0-3-0--5-5-5-5-1-1-1--1-1-1-1-3-3-3]
 [0-0-0-3-0--5-5-5-5----------------3-3-3]

 


 


 Chorus Riff


 

 
 [-----------------------------------------------------]
 [-----------------------------------------------------]
 [33333333---7----77777777-----------------------------]
 [33333333---7----77777777--33333333---3333-3-2---2----]
 [11111111-1/5----55555555--33333333---3333-----5---5-3]
 [-------------00-00000000--33333333-0-3333------------]

 


 


 [Verse] 


 


 [Cborus] 


 


 Bridge


 

 
 [--------12h13h12-----------]
 [---------------------------]
 [---------------------------]
 [-3-2---------------3-2----3]
 [5----3------------5----3---]
 [---------------------------]

 


 


 [Cborus 3x] 


 


 Outro


 

 
 [------------------------]
 [------------------------]
 [------------------------]
 [0-0-0-3-0--0-0-0-0-3-0-3]
 [0-0-0-3-0--0-0-0-0-3-0-3]
 [0-0-0-3-0--0-0-0-0-3-0-3]


Important: The song above is NOT stored on the Chordie server. The original song is hosted at www.christianguitar.org. Chordie works as a search engine and provides on-the-fly formatting. Chordie does not index songs against artists'/composers' will. To remove this song please click here.

This song is displayed as text-only. Transposing and tuning is only available for chordpro-songs.
Rate #1 of 13 versions

Jango Player

Login - add to songbook

SHARE PAGE  




You need to log in to post comments