Guitar Tabs, Chords and Lyrics
Server problems seems to be fixed. Chordie has been experiencing problems with songs disappearing. These issues now seems to be fixed, but still verifying the fix. If you find anything strange, please email admin@chordie.com.


Breakdown  Relient K

Anatomy of the Tongue In Cheek
Breakdown
(c)2001 GoTee Records
Thomas(eastcoastpunk66@poppunk.com)
Intro(Part 1)
 
 [Guitar 1-- Guitar 2-----------]
 [----------] [-------------------]
 [-9-7-6----] [-7--7--7--9--6--6--] *=A lot more than one
 [----------] [-------------------] stroke a note.
 [----------] [-------------------]
 [----------] [-------------------]

Intro(Part 2)
 
 [------------------------------------]
 [10------------------------------5---] Again, Play each note
 [---7-6--9-7-6-7-6--9-7-6--6---6-----] More than once.. Not
 [----------------------------7-----7-] sure if this is perfect..
 [------------------------------------]
 [------------------------------------]

[A] [D] [B] [A]  
Verse:
A(fade out..)
A(pm)
Prechorus:
(D E* A) x2
D E*
Chorus:
(B D A E*)
 
 [-----------------------------------------------------]
 [--------------3-2-------------------------3-2--------] Tip- Try playing
 [----2-----2---------2---2-------2-----2---------2---2] an A-type chord
 [------------------2---------0-0---0-0---0-----2---0--] when doing this.
 [0-0---0-0---0---------0------------------------------]
 [-----------------------------------------------------]

[Intro Part 1] 
[Intro Part 2] 
[Cborus] 

Important: The song above is NOT stored on the Chordie server. The original song is hosted at www.christianguitar.org. Chordie works as a search engine and provides on-the-fly formatting. Chordie does not index songs against artists'/composers' will. To remove this song please click here.

Text color:
Chord color:
Chord grids: 
Font size:    
Page size: 

A B D
Rate #1 of 2 versions

Jango Player

Login - add to songbook

SHARE PAGE  




You need to log in to post comments