Guitar Tabs, Chords and Lyrics
Server problems seems to be fixed. Chordie has been experiencing problems with songs disappearing. These issues now seems to be fixed, but still verifying the fix. If you find anything strange, please email admin@chordie.com.


Breathe Babylon  P.O.D.

P.O.D. "Breathe Babylon"
Brown
Rescue Records
1996 Wuvy Songs/Kupihea Music/Concierto Vibe Music
Tabbed by Ben Lewis (sprtflldhrdcr@juno.com)
RE-Tabbed by Jason Ching
I know this song was already on here but there were a lot of mistakes so I
decided to fix the mistakes and plus I added the Lyrics and I put the counts
at the end of the Tab. Hope it helps you out.
Tuning:
[E]  
[B]  
[G]  
[D]  
[A]  
[D]  
Intro (First Part)
 
 E] ----------------------------- play this 6x and on the 5x the drums come in
 B] ----------------------------- just if you were wondering on that part.
 G] -------------7-7-7-7-7-------
 D] -7-7-7-7-7---x-x-x-x-x-------
 A] -5-5-5-5-5---5-5-5-5-5-------
 D] -----------------------------

Intro (second part):
 
 E] ------- do this 5x and after that he does a palm mute I belive you have to
 B] ------- listen and judge for yourself.
 G] ------- 

D) -1-1-1- after you do each strike on the chords do a slight mute you have to
A) -1-1-1- listen to the song for it.
[D)] [-1-1-1-]  
Chorus:
 
 E] ----------------
 B] ----------------
 G] ---------------- 

D) -4/3\4--4/3\4-
A) -4/3\4--4/3\4- you should listen to the song for this part as well listen
D) -4/3\4--4/3\4- really good for the rhythm of it.
Verse:
 
 E] --------------------------------
 B] --------------------------------
 G] -7-7-7-7/8\5--5/7\5--5/7\5------
 D] -x-x-x-x-x-x--x-x-x--x-x-x------
 A] -5-5-5-5/6\3--3/5\3--3/5\3------
 D] -------------------------------- 

Chorus #2
 
 E] ----------------------
 B] ----------------------
 G] ----------------------
 D] ----------------------
 A] -5-5-5-8-6-5--5-5/6\3-
 D] ---------------------- 

Verse#2
 
 E] -----------------------
 B] -----------------------
 G] -7-7-7-10-8-7-7-7/8\5--
 D] -x-x-x-x-x-x--x-x-x-x--
 A] -5-5-5-8-6-5--5-5/6\3--
 D] -----------------------

Part one intro: 6x
Part two intro: 5x
Chorus: 8x
Verse: 6x
Chorus:8x
Verse: 6x
Chorus: 8x
Chorus#2: 6x
Verse#2: 7x
Chorus#2: 4x
Verse#2: 8x
Verse: 4x
Chorus: 6x
hope it helps you and God bless.

Important: The song above is NOT stored on the Chordie server. The original song is hosted at www.christianguitar.org. Chordie works as a search engine and provides on-the-fly formatting. Chordie does not index songs against artists'/composers' will. To remove this song please click here.

Text color:
Chord color:
Chord grids: 
Font size:    
Page size: 

A B D E G
Rate #1 of 2 versions

Login - add to songbook

SHARE PAGE  




You need to log in to post comments