Guitar Tabs, Chords and Lyrics
Server problems seems to be fixed. Chordie has been experiencing problems with songs disappearing. These issues now seems to be fixed, but still verifying the fix. If you find anything strange, please email admin@chordie.com.


All Over Me  The Benjamin Gate

All over me (this is the clean picking part Chris does)
The Benjamin Gate
Jon Van
mezza_nine@hotmail.com
Intro
[C#7]  
 
 E-4---4---4---4-
 B-5---5---5---5-
 G-6---6---6---6-
 D-6---6---6---6-
 A-4---4---4---4-
 E-4---4---4---4-

Picking
 
 E------------------------------------------------------
 B-----5------------5------------5------------5---------
 G---6---6------6-----6------6-----4------6-----4------6
 D-6----------6---6--------6---6--------6---6--------6--
 A----------4------------4------------4------------4----
 E------------------------------------------------------

Chorus
[A] [C#7] [B] [A] [C#7]  
 
 E--0-x-0-x-4-x-4-x-----2--------2----0-x-0-x-0-x-0-x-----7-7-7-7-7
 B--2-x-2-x-5-x-5-x---4--------4------2-x-2-x-2-x-2-x---7---7-7-7-7
 G--2-x-2-x-6-x-6-x-4-----4--4-----4--2-x-2-x-2-x-2-x-4------------
 D----x------------------------------------------------------------
 A-----------------------------------------------------------------
 E-----------------------------------------------------------------

during the bridge he play's the E chord I think.
Then what he does when the guy starts saying "all over me"
I have no clue of.

Important: The song above is NOT stored on the Chordie server. The original song is hosted at www.christianguitar.org. Chordie works as a search engine and provides on-the-fly formatting. Chordie does not index songs against artists'/composers' will. To remove this song please click here.

Text color:
Chord color:
Chord grids: 
Font size:    
Page size: 

A B C#7
Rate #1 of 1 versions

Jango Player

Login - add to songbook

SHARE PAGE  



You need to log in to post comments