Guitar Tabs, Chords and Lyrics
Login is temporarily disabled for some users. Do not panic. Will be back in an hour or two. DO NOT REREGISTER!!


Come to Me  Jennifer Knapp

Title: Come to Me
Album: The Way I Am
Tabbed by: Kristopher Neel
I don't know the name of two of the chords in the song.
I'll just call the ?G#? and ?B?
Intro/Verse:
Pick the chords
1st time
C#m E F# ?G#?
 
 e -----------------------------------
 B ---5------0-----------------5------
 G --6-6------3----3-4-3-------4------
 D -6---6---2-----4-----4------6------
 A 4-------2-----4------------7-------
 E -------0-----2---------2/4--------- 

2nd time
C#m E F# ?B?
 
 e -----------------------------------
 B ---5------0-2----------------------
 G --6-6------------3-4-3--4----------
 D -6---6---2------4-------2----------
 A 4-------2------4--------2----------
 E -------0------2-------------------- 

add 3rd time for the verse
3rd time
[C#m] [E] [F#] [A] [B]  
 
 e -----------------------------0--0--
 B ---5------0-2----------------0--0--
 G --6-6------------3-4-3-3h4---2--4--
 D -6---6---2------4-----4------2--4--
 A 4-------2------4-------------0--2--
 E -------0------2-------------------- 

Verse:
[C#m]Leaves a mind [E]left to wander
F# ?G#?
where in the world's she gone
[C#m]once a head l[E]aced in halos
F# ?B?
how could it go wrong?
[C#m]comes to mind, [E]she lays her head in
[F#]flowers and wine
maybe n[A]ext time she will fi[B]nd
Chorus:
[E] Come to Me[C#m], Come to [A]Me, My y[B]oke is easy
[E]I'll give you [C#m]rest u[A]nder wing to b[B]reast
Come to Me
Verse 2:
[C#m]The great beyond, a [E]better mystery
F# ?G#?
than the life at hand
[C#m]search the shadows [E]only to find a
F# ?B?
dry and weary land
[C#m]all the while o[E]asis lies just [F#]one breath away
only [A]one breath [B]away
Chorus
That's pretty much it. I don't have the solo yet, but it doesn't sound
too hard. I just didn't have time yet. Have fun with this one, it's
the coolest one on the new cd.

Important: The song above is NOT stored on the Chordie server. The original song is hosted at www.christianguitar.org. Chordie works as a search engine and provides on-the-fly formatting. Chordie does not index songs against artists'/composers' will. To remove this song please click here.

Text color:
Chord color:
Chord grids: 
Font size:    
Page size: 

A B C#m E F#
Rate #1 of 1 versions

Jango Player

Login - add to songbook

SHARE PAGE  




You need to log in to post comments