Guitar Tabs, Chords and Lyrics
Major upgrade!! After one year development the new version of Chordie is now online! Please give feedback.


My Hope Is You  Third Day

Song Name: My Hope Is You
Album: Conspiracy No. 5
Artist: Third Day
Copyright: 1997 New Spring Publishing / ASCAP
Verse 1
[C] [F/C] [C] [F/C]  
[C] [F/C] [C] [F/C]  
[C] [F/C] [C] [F/C]  
[C] [F/C] [C] [F/C]  
Chorus:
[C] [F/C]  
[C] [F/C]  
[Am] [Am9]  
[F]  
[C]  
Verse 2
Chorus
Solo (over chorus)
1st 2 lines of CHORUS Bass, no guitar,
then CHORUS 2X,
=====================================================================
=====================================================================
Song Name: My Hope Is You
Album: Conspiracy No. 5
Artist: Third Day
Copyright: 1997 New Spring Publishing / ASCAP
Although I have the book, I'm not relying on it. I had it
figured before I bought it and that's the way I'll write it out.
Don't waste your money on it either. They did a okay job but
they left out no telling how many measures of music. Guitar 1 is
an acoustic. Guitars 2&3 are electric. Guitar 2 uses a tremolo
for his solos only. Riff1 is the intro and verses. Don't forget
your feedback with Riff2.-Kent-
Gui1&3 C Csus4 ~ =
 
 iff1 E------------------------------ h = hammer-on
 B--------1---1-----1---1---1--- r = return
 G---------0---0-----0---0---0-- p = pull-off
 D-----2----2---2h3---3---3----- = = hold the note out
 A--3--------------------------- b = bend
 E------------------------------ * = bend the note up a 1/4

[Gui2]Riff2 G--[C5]5--
[D--5--]  
[A--3--]  
Gui1&3 Am A2 Am F
 
 Riff3 B-----1---1---0---0---1------1---1---1---1---1---
 G------2---2---2---2----------2---2---2---2---0--
 D-------2---2---2---2---2-3----3---3---3---3-----
 A--0---------------------------------------------

[Gui2]Riff4 C (2) (4) C (2) (4) A5 Am A2 A5 F5
 
 E-------------------------------------
 B--1--1-1-1--1--1-1-1-----1--0--------
 G--0--0-0-0--0--0-0-0--2--2--2--2-----
 D--2--0-2-3--2--0-2-3--2--2--2--2--3--
 A--3--3-3-3--3--3-3-3--0--0--0--0--3--
 E----------------------------------1--

[Gui2]  
 
 Riff5 B--5----5----6----6----8----8----6----6----
 G-----5---5-----5---5-----5---5-----5---5--

Gui1&3 C Gui3 F
Riff6 Riff7
 
 E------------------- E----------------------
 B--1--1-1-1-1-1--1-- B--1----------1--------
 G--0--0-0-0-0-0--0-- G--2------2-----2---2--
 D--2--0-2-0-2-3--2-- D--3--3-3---3-----3----
 A--3--3-3-3-3-3--3-- A--3-------------------
 E------------------- E--1-------------------

After the first and second chorus play Riff4B and Riff1 twice.
After the solo and Mac sings his bit play Riff7.
Verse 1
Riff1
Riff2
Riff1&3
Verse 2
same as verse 1
Chorus
Riff1&4
Riff3
Guitars 1&3 play the chorus during the solo.
[Gui2]  
 
 E--5-----------------8-----8--5-----------------8-----8---15~---15~----
 B-----8--5--------6-----6--------8--5--------6-----6---------13~---13~-
 G-----------7--5-------------------------7--5--------------------------
 E--13~---13~---12~---12~-----------------------15----------------------
 B-----13~---13~---13~---13~--15*---------15b17====r15--15*15--13~------
 G---------------------------------12h14--------------------------------

This is the outro after the last chorus. During this part play
Riff6.
[Gui2]  
 
 E--5-----------8---8--5-----------------5-----------8---8--5-----------
 B----8-5-----6---6------8-5---------------8-5-----6---6------8-5-------
 G--------7-5----------------7-5--7b9r7--------7-5----------------7-5---
 D----------------------------------------------------------------------
 E----8--8--------15-----------------------------------------------17---
 B--6---6---15b17====r15--15*15-13--15*15-13-----------------15b17====--
 G-------------------------------------------14-12----------------------
 D-------------------------------------------------14-12\10-------------
 E----------------------------------------------------------------------
 B--15*15-13------------------------------------------------------------
 G-----------14-12~--------12-------12-14b16r14-12----------------------
 D-------------------12h14----12h14----------------14-12\10-12b14r12-10-


Important: The song above is NOT stored on the Chordie server. The original song is hosted at www.christianguitar.org. Chordie works as a search engine and provides on-the-fly formatting. Chordie does not index songs against artists'/composers' will. To remove this song please click here.

Text color:
Chord color:
Chord grids: 
Font size:    
Page size: 

Am Am9 C C5 F F/C
Rate #1 of 6 versions

Login - add to songbook

SHARE PAGE  




You need to log in to post comments