Guitar Tabs, Chords and Lyrics
Major upgrade!! After one year development the new version of Chordie is now online! Please give feedback.


Missing Person  Michael W. Smith

Song: Missing Person
Artist: Michael W. Smith
Album: Live The Life
Tabbed: Daniel Bradish
(Guitar 1: Electric w/Clean Tone)
Riff 1:
 
 E -------------------------------------------------
 B --6-5-6-5-6-5-6-5-6-5-6-5-6-5-6-5-6-5-3-5-3-5-3--
 G --7-----------7-----------7---7---7-5---5---5-5--
 D ------------------------------------------------- 

Riff 2:
 
 E ------------------------------------5-s-8--8--8--
 B --6-5-6-5-6-5-6-5-6-5-6-5-6-5-6-5-6-5-s-8--8--8--
 G --7-----------7-----------7---7---7-7-s10-10-10--
 D ------------------------------------7-s10-10-10-- 

^Slow Tremolo^
Intro:
Riff 1, 2, 1, 1
Verse:
F2(no3) C2(no3)
F2(no3) Am
F2(no3) C2(no3)
F2(no3) Am
F2(no3) C2(no3)
F2(no3) Am Dm
F C2(no3) Am
Chorus:
[Fm] [C#maj7]  
[G#] [Cm]  
[Fm]G# [C#maj7]Cm C#maj7 C#2(no3)
Verse 2: (Played Like Verse 1)
Chorus 2: (Played Like Chorus 1)
Bridge:
[C#maj7] [G#] [C#maj7] [G#]  
[Gm] [D#maj7] [A#] [Dm] [Gm] [D#maj7] [A#] [Dm] 
Chorus 3:
[Gm] [D#maj7]  
[A#] [Dm]  
[Gm] [D#maj7]  
[A#] [Dm]  
[Gm] [D#maj7]  
[A#] [Dm]  
[Gm] [D#maj7]  
[A#] [Dm]  
Riff 3:
 
 E --6-5-6-5-6-5-6-5-6-5-6-5-6-5-6-5-6-5-3-5-3-5-3--
 B --8-----------8-----------8---8---8-6---6---6-6--
 G -------------------------------------------------
 D ------------------------------------------------- 

(Riff 3 Four Times And Fade)

Important: The song above is NOT stored on the Chordie server. The original song is hosted at www.christianguitar.org. Chordie works as a search engine and provides on-the-fly formatting. Chordie does not index songs against artists'/composers' will. To remove this song please click here.

Text color:
Chord color:
Chord grids: 
Font size:    
Page size: 

A# C#maj7 Cm D#maj7 Dm Fm G# Gm
Rate #1 of 2 versions

Jango Player

Login - add to songbook

SHARE PAGE  




You need to log in to post comments