Guitar Tabs, Chords and Lyrics
Update 25:10. 13:00. Site is back up running again. Songbooks are recovered. Woring on getting search back up..


Angels  All Star United

Self-titled album
C1997Reunion Records
Written by Eskelin,McKelvey,Clo
Tabbed by Steve Cruickshank
postlambjam@hotmail.com
Intro:
 
 e-----------------------------
 B---9-9-9-9-9--7-7-7--5-5/7---
 G---9-9-9-9-9--8-8-8--6-6/8--- (x2)
 D-----------------------------
 A-----------------------------
 E-----------------------------
 e----------------------------------------
 B----------------------------------------
 G-9--9-9-8---9--9-9----------------------
 D--9--9---9---9--9--10-7-10-7-10/12-12---
 A----------------------------------------
 E----------------------------------------

E C#m B C#m C
 
 e------------------------------------------------
 B-------------12-12-12--------14-14-14--8-8-8/10-
 G-9--9-9-8----12-12-12--11-11-14-14-14--9-9-9/11-
 D--9--9---9-------------12-12--------------------
 A------------------------------------------------
 E------------------------------------------------

E C#m B G D A C
Verse:
[E] [B] [C#m] [A] [E]  
[E] [B] [C#m] [C]  
[G#] [C#m] [F#]  
[A] [B]  
CHORUS:
[E] [C#m] [B] [C#m] [C]  
[E] [C#m] [B] [C#m] [B]  
Then play:
 
 D----5----5---
 A-2/3--2/3--2-
 E-------------

Bridge:
G#,A,C,A E,B,C#m,A E,B,C#m,C G#,A,C,A
The solo played during the bridge is similar to the first part of the
intro tab, listen and you'll figure it out.
Chorus again, this time end on G D A C

Important: The song above is NOT stored on the Chordie server. The original song is hosted at www.christianguitar.org. Chordie works as a search engine and provides on-the-fly formatting. Chordie does not index songs against artists'/composers' will. To remove this song please click here.

Text color:
Chord color:
Chord grids: 
Font size:    
Page size: 

A B C C#m E F# G#
Rate #1 of 1 versions

Jango Player

Login - add to songbook

SHARE PAGE  




You need to log in to post comments