Guitar Tabs, Chords and Lyrics
Major upgrade!! After one year development the new version of Chordie is now online! Please give feedback.


Alien  Third Day

"Alien" (Solo)
By Third Day
Off the album "Conspiracy No. 5"
Words by Mac Powell and Mark Lee, Music by Third Day
(C)1997 New Spring Publishing (a div. of Brentwood-Benson
Music Publishing, Inc.)/Vandura 2500 Songs/gray dot songs,
a div. of gray dot, inc. (ASCAP)
Tabbed by Myron Marston (guitar_melosh@hotmail.com)
It was real hard to tab this out with all the effects
Third Day uses, so please forgive any mistakes!
Email me with any questions, comments or suggestions!
Key:
\=slide down /=slide up
h=hammer on p=pull off
b=bend r=return
v=vibrato
 
 e-12------------------------------12-14-15--15-14-12--15-14-
 B-------15\-------------12-13v------------------------------
 G-----------14-14v---14-------------------------------------
 D-----------------------------------------------------------
 A-----------------------------------------------------------
 E-----------------------------------------------------------

super fast run - 3:44 (basiclly a run down the Em scale)
 
 e-12--------------------------------------------------12----
 B----15-13-12-----------------------------------------15b16-
 G-------------14-12-11h12/14-12p11--------------------------
 D----------------------------------14-12--------------------
 A-----------------------------------------------------------
 E----------------------------------------16-15v-------------
 e--------------------------------------12---15---12\--10\-
 B-12------12----------------12----------------------------
 G-14b15---14b15r14p12h14v---14b15r14----------------------
 D---------------------------------------------------------
 A---------------------------------------------------------
 E---------------------------------------------------------
 e-12\--10\--8\--7/---15v-----------------------12--15--12\-10-
 B---------------------------12\---7/----10v-------------------
 G-------------------------------------------------------------
 D---------------------------9\----4/----7---------------------
 A-------------------------------------------------------------
 E-------------------------------------------------------------

______________________________________________________________
Intro
[A-F-G]  
I just play an "A" all through the verses
Chorus:
[A] [D] [F]  
Bridge:
[A] [D] [A]  
[A] [D] [A]  
[A] [D]  
________________________________________________________________
Author/Artist: Third Day
Title: Alien
Album: consperisy #5
Transcribed by: kenny bochat
Email: KRBX3@email.msn.com
lead guitar intro
 
 -33333-55555-33333-55555-33333-55555------------------------------------------
 ------------------------------------------------------------------------------
 ------------------------------------------------------------------------------
 ------------------------------------------------------------------------------
 ------------------------------------------------------------------------------
 ------------------------------------------------------------------------------
 --------------1---3-----------------------------------------------------------
 -2-2-2-2-2----1---------------------------------------------------------------
 -2-2-2-2-2----2---------------------------------------------------------------
 -2-2-2-2-2----3---------------------------------------------------------------
 ------------------2-----------------------------------------------------------
 ------------------3-----------------------------------------------------------

a a a a a f g repeat that for rythym lead guitar
 
 ------------------------------------------------------------------------------
 -2---------2---------2---------2-2-2-2-2-2-2-2--------------------------------
 -2---------2---------2---------2-2-2-2-2-2-2-2--------------------------------
 -2---------2---------2---------2-2-2-2-2-2-2-2--------------------------------
 ------------------------------------------------------------------------------
 ------------------------------------------------------------------------------

a a a a a a a a a a a verse(what's above)
 
 --------------------------------------3-3-3---1-1-----------------------------
 -2-2-2-2-2-2-2-2-2-2-2-2-2-2-2-2--------------1-1-----------------------------
 -2-2-2-2-2-2-2-2-2-2-2-2-2-2-2-2--------------2-2-----------------------------
 -2-2-2-2-2-2-2-2-2-2-2-2-2-2-2-2--------------3-3-----------------------------
 --------------------------------------2-2-2-----------------------------------
 --------------------------------------3-3-3-----------------------------------

a a a a a a a a a a a a a a a a g g g f f chorus(what's above)

Important: The song above is NOT stored on the Chordie server. The original song is hosted at www.christianguitar.org. Chordie works as a search engine and provides on-the-fly formatting. Chordie does not index songs against artists'/composers' will. To remove this song please click here.

Text color:
Chord color:
Chord grids: 
Font size:    
Page size: 

A D F
Rate #1 of 5 versions

Jango Player

Login - add to songbook

SHARE PAGE  



You need to log in to post comments