Guitar Tabs, Chords and Lyrics
Server problems seems to be fixed. Chordie has been experiencing problems with songs disappearing. These issues now seems to be fixed, but still verifying the fix. If you find anything strange, please email admin@chordie.com.


This Song Was Meant for You  Third Day

c1997 Class Reunion Music
Solo and Rhythm Chords
*Note: Mac Powell plays the Fm7 and Gm7 in the songs chorus as shown
below. I saw them perform this acoustically on TV. It was awesome.
 
 e----1-------3---------------------
 B----1-------3---------------------
 G----1-------3---------------------
 D----1-------3---------------------
 A----x-------x---------------------
 E----x-------x---------------------

[Fm7] [Gm7]  
Guitar Solo on Intro
[C] [Em] [F] [Am] [G] [C] [Em]  
 
 e--------------------------------------------------------------------
 B-------------------------6-8-10-------------------------------------
 G--5-7-9-7-5-9-10-12-10-9--------------------------------------------
 D--------------------------------------------------------------------
 A---------------------------------10-8-5-7-9-12----3-5-7-5-3-7-8-10--
 E--------------------------------------------------------------------

[F] [Am] [G]  
 
 e-------------------------------------
 B-------------------------------------
 G------------------1-3-5-7-9----------
 D-------3-5-7-5-3---------------------
 A--8-7--------------------------------
 E-------------------------------------

Verse:
[C] [Em] [F] [Am] [G]  
[C] [Em] [F] [Am] [G]  
[D] [F]  
Chorus
[C] [C7]  
[F] [Fm7]  
[C] [C7]  
[F] [Fm7]  
second solo
[C] [Em] [F] [Am] [G]  
 
 e------------------------------------------------------------
 B------------------------------------------------------------
 G-------------10-12-10-9-10-12-------------------------------
 D------------------------------7-5-3-6-8-10-12-14------------
 A--3-5-7-5-3-------------------------------------------------
 E------------------------------------------------------------

[C] [Em] [F] [Am] [G]  
[C] [Em] [F] [Am] [G]  
[D] [F]  
Chorus
Bridge
[G] [C] [Bb]  
[G] [C] [Bb]  
Chorus
[D] [D7]  
[G] [Gm7]  
[D] [D7]  
[G] [Gm7] 

Important: The song above is NOT stored on the Chordie server. The original song is hosted at www.christianguitar.org. Chordie works as a search engine and provides on-the-fly formatting. Chordie does not index songs against artists'/composers' will. To remove this song please click here.

Text color:
Chord color:
Chord grids: 
Font size:    
Page size: 

Am Bb C C7 D D7 Em F Fm7 G Gm7
Rate #1 of 8 versions

Login - add to songbook

SHARE PAGE  




You need to log in to post comments