Guitar Tabs, Chords and Lyrics
Update 25:10. 13:00. Site is back up running again. Songbooks are recovered. Woring on getting search back up..


Overjoyed  Jars of Clay

CD: Much Afraid
c1997 Pogostick Music (BMI)
Tab by Steve Cruickshank
(postlambjam@hotmail.com)
Verse 1: (see chords at the end)
[1] [2] [1] [2] [1]  
[2] [3] [2] [1]  
[2] [1] [2] [1]  
[2] [3] [2]  
[3] [2] [A]  
CHORUS:
Electric part (2nd guitar plays chords)
 
 e------------------------------------------1----3---------------
 B---------------5--------------------------1----3---------------
 G---------------5--------------------------2----4---------------
 D---------------5-------6------------------3----5---------------
 A----4-5---4-5--3-----7---7----4-5---4-5---3----5---------------
 E--5-----5----------4--------5-----5-------1----3---------------

[---A] [C] [E/G#] [A] [F] [G] 
 
 e------------------------------------------------0--------------
 B---------------5--------------------------------0--------------
 G---------------5-------------2-2-2-2--4-4-4-4---1--------------
 D---------------5-------6-----3-3-3-3--5-5-5-5---2--------------
 A----4-5---4-5--3-----7---7---3--------5---------2--------------
 E--5-----5----------4---------1--------3------------------------

[---A] [C] [E/G#] [F] [G] [E/G#] 
[A] [C] [E/G#] [A]  
[A] [F] [G] [A]  
[A] [C] [E/G#] [F]  
[G] [E/G#]  
Verse 2
(chorus)
Bridge:
[F#m] [Bm]  
[F#m] [Bm]  
[Em] [G]  
[F#m] [Bm] [Em] [A]  
Solo:
 
 e-----------------------------------------------------------------
 B--------7b8r7----------------------------------------------------
 G--6-7-9-------7b9r7--6h7p6---6-7-9-------------------------------
 D-----------------------------------/9-7-9b10r9\7-----7-----------
 A-------------------------------------------------7/9--------7\---
 E--------------------------------------------------------7/9------

A C E/G# A F G A
 
 e-----------------------------------------------------------------
 B--------8b10r8---------------------------------------------------
 G--6-7-9--------7b9r7--6-7------5h7--7b8r7-5--7b8r7-5-------------
 D---------------------------5h7-----------------------7p5h7-------
 A-----------------------------------------------------------------
 E-----------------------------------------------------------------

A C E/G# F G
Verse 3
(chorus)
Background riff played in verses:
 
 e---------------------------------------------------------------
 B-------5---------5---------5-----------------------------------
 G---5-7-------5-7-------5-7-------------------------------------
 D-------------------------------/5-3-2---2-3-2-0----------------
 A---------------------------------------------------------------
 E---------------------------------------------------------------

Chords:
1 = Fmaj7/D xx0560
2 = G6 xx5430
3 = Fmaj7 xx3210
A x02220
C x32010
E/G# 4x2100 (or x22100, bass plays G#)
[F]G [133211]320033 (or 355433)
[F#m]Bm [244222]x24432
Em 022000

Important: The song above is NOT stored on the Chordie server. The original song is hosted at www.christianguitar.org. Chordie works as a search engine and provides on-the-fly formatting. Chordie does not index songs against artists'/composers' will. To remove this song please click here.

Text color:
Chord color:
Chord grids: 
Font size:    
Page size: 

A Bm C E/G# Em F F#m G
Rate #1 of 7 versions

Jango Player

Login - add to songbook

SHARE PAGE  




You need to log in to post comments