Guitar Tabs, Chords and Lyrics
Server problems seems to be fixed. Chordie has been experiencing problems with songs disappearing. These issues now seems to be fixed, but still verifying the fix. If you find anything strange, please email admin@chordie.com.


Late Great Planet Earth  Plumb

CD: Candycoatedwaterdrops
C1999 by Tiffany Arbuckle, Matt Bronleewe, Jimmy Collins
Tab:Steve Cruickshank
postlambjam@hotmail.com
Like almost all of their songs, they do this tuned down
half a step, but this tab is for standard-tuned guitar
Verse octave riff: (Bass plays Eb throughout verse)
 
 e-------------------------------------------------
 B-11-11-11---12-12-12---10-10-10---15-15-15--16---
 G-------------------------------------------------
 D-8--8--8----9--9--9----7--7--7----12-12-12--13---
 A-------------------------------------------------
 E-------------------------------------------------

Chorus:
[B] [Ebm]  
[C#] [B]  
[B] [Ebm]  
[C#] [B]  
Riff in Ebm played after chorus
 
 e-------------------------------------------------
 B-------------------------------------------------
 G-------------------------------------------------
 D-------3-4-----3-4----3-----3--------------------
 A---6-6-------6----------5-6------6-5-------------
 E-------------------------------------------------

Verse2
Bridge:
[B/F#] [Ebm]  
[B/F#] [Ebm]  
[B/F#] [Ebm]  
[B] 

Important: The song above is NOT stored on the Chordie server. The original song is hosted at www.christianguitar.org. Chordie works as a search engine and provides on-the-fly formatting. Chordie does not index songs against artists'/composers' will. To remove this song please click here.

Text color:
Chord color:
Chord grids: 
Font size:    
Page size: 

B B/F# C# Ebm
Rate #1 of 1 versions

Login - add to songbook

SHARE PAGE  



You need to log in to post comments