Guitar Tabs, Chords and Lyrics
Server problems seems to be fixed. Chordie has been experiencing problems with songs disappearing. These issues now seems to be fixed, but still verifying the fix. If you find anything strange, please email admin@chordie.com.


Fly Away  FFH

Tabbed by: Josiah (guitarvibe55@yahoo.com)
Ok this a very accurate tab for the most part. I think they play it with
a capo on the 2nd fret but I'm not positive so I put the chords w/o the
capo in parentheses. So if you are NOT playing with a capo, use the CHORDS
IN PARENTHESES!!!! Plus, the timing on the Intro is kind of awkward but if
you listen to the song you can figure it out. I omit all unplayed strings
Intro: WITH CAPO (notes are 1 step up than note w/o capo)
 
 A--0---0-0--0--
 E--0h2-0-3--2--
 B--3---3-3--3-- 

WITHOUT CAPO:
 
 D--0---0-0---0--
 A--7h9-7-10--9--

Verses:
C(D) G(A) F(G) G(A) 2X
Pre-Chorus:
[Am(Bm)] [G(A)]  
[F(G)] [G(A)]  
Chorus:
C(D) G(A) F(G) G(A) 4X
[Am(Bm)] [G(A)] [F(G)]  
[Bb(C)] [F(G)] [G(A)]  
[Am(Bm)] [F(G)] [G(A)] [C(D)]  
Solo: It's the same with or without the capo. This is extremely accurate,
but I don't think it is completely perfect.
 
 B----------------------------------------------------------
 G--11p9----9-----12p11----------11p9-----------------------
 D-------12-------------12-9----------12-9--12-9--12--7~~~--
 B-------------------------19~~~------15------15-------------------------
 G--11p9----9-----11h14-11-19~~~--14------14-----11-h12p11h12p11---------
 D-------12-----------------------------------------------------12-14~~~-

PRE-CHORUS
CHORUS 2X
LAST LINE OF CHORUS REPEATEDLY (I'm not sure how many times)
END ON "C(D)"
That's all. I hope you enjoy it. I had a good time figuring it out.
Questions or comments email me at guitarvibe55@yahoo.com. Later!

Important: The song above is NOT stored on the Chordie server. The original song is hosted at www.christianguitar.org. Chordie works as a search engine and provides on-the-fly formatting. Chordie does not index songs against artists'/composers' will. To remove this song please click here.

Text color:
Chord color:
Chord grids: 
Font size:    
Page size: 

Am(Bm) G(A)
Rate #1 of 1 versions

Jango Player

Login - add to songbook

SHARE PAGE  




You need to log in to post comments