Guitar Tabs, Chords and Lyrics
Server problems seems to be fixed. Chordie has been experiencing problems with songs disappearing. These issues now seems to be fixed, but still verifying the fix. If you find anything strange, please email admin@chordie.com.


All Around The World  Paul Colman Trio

Song Title: All Around The World
Artist: Paul Colman Trio
Tabbed by: Dan
[Em] [C] [G] [D/Bm] [Am] [D]  
 
 E -0--0--3--2----0---2
 B -0--1--3--3----1---3
 G -0--0--0--2----2---2
 D -2--2--0--4----2---0
 A -2--3--2--X----0---x
 E -0--x--3--2----x---x

CAPO ON 1ST FRET
Verse 1
[Em] [C] [G] [D/Bm]  
[Em] [C] [G] [D/Bm]  
[Em] [C] [G] [D/Bm]  
[Em] [C] [G] [D/Bm]  
Pre-chorus
[Am] [C]  
Chorus
[G]G [D]D [Am]Am ([C]Claps) C
Musical Break/Solo
[G] [D] [Am] [C]  
 
 E ----------------------------------------
 B ---3-----------0/1-0--------------------
 G -----0-----2-4-------2-0----------------
 D -------4----------------------0/2--0-0--
 A -------------------------3----------3---
 E ----------------------------------------

[G] [D] [Am] [C]  
 
 E -----------------------------------------
 B ---3-----------0/1-0---------------------
 G -----0-----2-4-------2-------------------
 D -------4---------------------------------
 A -------------------------0-2/3-2-0-------
 E -------------------------------------3--0 

Verse
Pre-Chorus
Chorus 2
[G] [D] [Am] [C]  
[G]G [D]D [Am]Am ([C]Claps) C
Musical Break/Solo
Bridge
 
 E -x-x--x-x--x-x--x-x-x-x-x
 B -x-x--x-x--x-x--x-x-x-x-x
 G -9-9--7/9--7/9--9-x-x-7-7
 D -9-9--7/9--7/9--9-x-x-7-7
 A -7-7--5/7--5/7--7-x-x-5-5
 E -x-x--x-x--x-x--x-x-x-x-x
 E -x-x--x-x--x-x--x-x-x-x-x
 B -x-x--x-x--x-x--x-x-x-x-x
 G -9-9--7/9--7/9--9-x-x-7-7
 D -9-9--7/9--7/9--9-x-x-7-7
 A -7-7--5/7--5/7--7-x-x-5-5
 E -x-x--x-x--x-x--x-x-x-x-x

C(strum until chorus)
 
 E -x-x--x-x--x-0
 B -x-x--x-x--x-1
 G -9-9--7/9--7-0
 D -9-9--7/9--7-2
 A -7-7--5/7--5-3
 E -x-x--x-x--x-x

Chorus until end of song, but end song in G chord after the last C.
Hope this works out for you, email me if you like it or what not,
this is the first song I've ever tabbed.
[-Dan] 

Important: The song above is NOT stored on the Chordie server. The original song is hosted at www.christianguitar.org. Chordie works as a search engine and provides on-the-fly formatting. Chordie does not index songs against artists'/composers' will. To remove this song please click here.

Text color:
Chord color:
Chord grids: 
Font size:    
Page size: 

Am C D Em G
Rate #2 of 7 versions

Login - add to songbook

SHARE PAGE  



You need to log in to post comments