Guitar Tabs, Chords and Lyrics
Server problems seems to be fixed. Chordie has been experiencing problems with songs disappearing. These issues now seems to be fixed, but still verifying the fix. If you find anything strange, please email admin@chordie.com.


Kindness   Chris Tomlin

 
 E-------------------------------------------------------------------------------
 B---------3--------3--------3----------3------------------3--------3--------3---
 G------0--------0--------0---------------------0-------0--------0--------0------
 D-----------------------------------0--------0----------------------------------
 A—-3------2-------0--------------------0---------3--------2--------0------------
 E------------------------------3------------------------------------------------
 E---3 B----

 


 [G----]  


 [D----]  


 [A----]  


 [E-3--]  


 Repeat this a couple times before the words start, then play the next part for


 the last line of the verse:


 

 
 E-----------3------------------
 B--------1------------2-------
 G------------------------------
 D-----2-----------0-----0h2--
 A--3-----------0--------------
 E------------------------------

 


 That’s all I can figure out right now. It sorta hard to hear the picking during


 the chorus. But here are the basic chords for the verse and chorus.


 Verse: Chorus:


 GDEmD CGAm7Am I hope you have fun with this. GOD bless, Jesus


 GDEmD CGAm7AM loves you.


 [GDEmD] [CG]  


 [CD]=========================


 =========================


 It may seem wierd but this tab is actually played at capo 8


 


 this is just the verses...i cant get the chorus down...ummm...to make this tab


 easier play it around the C chord. Try it!


 


 

 
 -----------------------------------------
 -----------------------------------------
 ------0---------0--------0-------0-------
 --0h2---2----0----0----2---2---0-------0-
 --3-------2----------0-------------0h2---
 -----------------------------3-----------
 -----------------------------------------
 -----------------------------------1-----
 ------0---------0--------0---------------
 --0h2---2----0----0----2---2-------------
 --3-------2----------0----------0--------
 -----------------------------------------


Important: The song above is NOT stored on the Chordie server. The original song is hosted at www.christianguitar.org. Chordie works as a search engine and provides on-the-fly formatting. Chordie does not index songs against artists'/composers' will. To remove this song please click here.

This song is displayed as text-only. Transposing and tuning is only available for chordpro-songs.
Rate #1 of 5 versions

Jango Player

Login - add to songbook

SHARE PAGE  



You need to log in to post comments