Guitar Tabs, Chords and Lyrics
Server problems seems to be fixed. Chordie has been experiencing problems with songs disappearing. These issues now seems to be fixed, but still verifying the fix. If you find anything strange, please email admin@chordie.com.


Snowbirds and Townies  Further Seems Forever

the moon is down, tooth and nail
tabbed by kyle de hoff (muddleheaded@hotvoice.com)
Tuning: FSF tunes all guitars (and bass) one half step down (Eb,Ab,Db,Gb,Bb,Eb)
however, since most bassists don't use alternate tunings on all strings, you
can simply tune down the E to Eb and A to Ab if you prefer.
Part A (intro)
 
 Gb ------------------
 Db ------------------
 Ab ------------------
 Eb -9---7-9--5--5----

Part B
 
 Gb ----------------------------------------------------------------------
 Db ----------------------------------------------------------------------
 Ab ----------------------------------------------------------------------
 Eb -5-5-5-5-5-5-5-5-7-7-7-7-7-7-5-5-9-9-5-5-5-5-5-5-5-5-9-9-5-5-7-7--7/9-
 ---------------------------------------------
 ---------------------------------------------
 ---------------------------------------------
 -5-9-5-5-5-5-5-5-9-9-9-9-9-9-9-9-9-9-9-9-9---

Part C
[Gb]  
[Db]  
[Ab]  
 
 Eb -0-----5-5-5-5-7-7-9-9-9-9-9-9-9-9-9-9-5-5-5-5-5-5-5-5-9-11-9-5-5-5-5-5-5
 ------------------------------------------------
 ------------------------------------------------
 ------------------------------------------------
 -7-7-9-9-9-9-9-9-9-9-5-5-5-5-5-5-9-11-9-12------

Part D
 
 Gb ---------------------------------------------
 Db ---------------------------------------------
 Ab -7-7-7-6-6-6-4-4-4-2-2-2-0-0-0-0-0-2-2-2-2-2-
 Eb ---------------------------------------------

Part E
 
 Gb ---------------------------------
 Db ---------------------------------
 Ab ---------------------------------
 Eb -5-5-5-5-5-5-5-5-7-7-7-7-7-7-7-7-

Order
part A x4
part B
part C
part A x4
part B
part D x2
part E x4 (end on Ab)
part D
part D silent until Ab-Bb
part D x2
the number of times each note is shown (i.e. -9-9-9-9-9) is not meant to be
exact, but a good guide. you'll hear the rhythm with the song. any
questions or comments, email me at muddleheaded@hotvoice.com

Important: The song above is NOT stored on the Chordie server. The original song is hosted at www.christianguitar.org. Chordie works as a search engine and provides on-the-fly formatting. Chordie does not index songs against artists'/composers' will. To remove this song please click here.

Text color:
Chord color:
Chord grids: 
Font size:    
Page size: 

Ab Db Gb
Rate #1 of 1 versions

Login - add to songbook

SHARE PAGE  



You need to log in to post comments