Guitar Tabs, Chords and Lyrics
Major upgrade!! After one year development the new version of Chordie is now online! Please give feedback.


Head Over Feet  Alanis Morissette

 
 >#----------------------------------PLEASE NOTE---------------------------------#

Head over feet
DISTORTED GUITAR
Chords used:
Verses: Chorus:
C: 335553 D: 557775
G: 355433 Bm: 224432
Am: 577555 A: 577655 or 002220
F: 133211 Bb: 113331
Notation legend
^ --> upstroke
v --> downstroke
/ --> slide up
\ --> slide down
!*! --> turn your guitar from distorted to clean (in verse 6))
$#$ --> turn your guitar from clean to distorted (after verse 6)
 
 - - - - - - - - - - - - - - - - - - - - - - - - - - - - - - - - - - - -

VERSE 1
[C]+ . + [G]. + . + . [Am]+ . + [F]. + . + .
 
 -3-----3-----3-------------3----- -5-----5-----1-------------1-----
 -5-----5-----3-------------3----- -5-----5-----1-------------1-----
 -5-----5-----4-------------4----- -5-----5-----2-------------2-----
 -5-----------5-------------5----- -7-----------3-------------3-----
 -3-----------5-------------5----- -7-----------3-------------3-----
 -------------3-------------3----- -5-----------1------------------- 

v ^ v ^ v ^ v ^
I had no choice but to hear you
[C]+ . + [G]. + . + . [Am]+ . + [F]. + . + .
 
 -3-----3-----3-------------3----- -5-----5-----1-------------1-1---
 -5-----5-----3-------------3----- -5-----5-----1-------------1-1---
 -5-----5-----4-------------4----- -5-----5-----2-------------2-2---
 -5-----------5-------------5----- -7-----------3-------------3-3---
 -3-----------5-------------5----- -7-----------3-------------3-3---
 -------------3-------------3----- -5-----------1-------------1----- 

v ^ v ^ v ^ v v ^
 
 You sta-----ted your case time and a--gain

[C]+ . + [G]. + . + . [Am]+ . + [F]. + . + .
 
 -3-----3-----3-------------3----- -5-----5-----1-------------1-----
 -5-----5-----3-------------3----- -5-----5-----1-------------1-----
 -5-----5-----4-------------4----- -5-----5-----2-------------2-----
 -5-----------5-------------5----- -7-----------3-------------3-----
 -3-----------5-------------5----- -7-----------3-------------3-----
 -------------3-------------3----- -5-----------1------------------- 

v ^ v ^ v ^ v ^
I thought a---bout it.
VERSE 2
[C]+ . + [G]. + . + . [Am]+ . + [F]. + . + .
 
 -3-----3-----3-----------3-3----- -5-----5-----1-----------1-1-----
 -5-----5-----3-----------3-3----- -5-----5-----1-----------1-1-----
 -5-----5-----4-----------4-4----- -5-----5-----2-----------2-2-----
 -5-----------5-----------5-5----- -7-----------3-----------3-3-----
 -3-----------5-----------5-5----- -7-----------3-----------3-3-----
 -------------3-----------3------- -5-----------1-----------1------- 

v ^ v v ^ v ^ v v ^
You treat me like I'm a princess
[C]+ . + [G]. + . + . [Am]+ . + [F]. + . + .
 
 -3-----3-----3-----------3-3----- -5-----5-----1-------------1-----
 -5-----5-----3-----------3-3----- -5-----5-----1-------------------
 -5-----5-----4-----------4-4----- -5-----5-----2---------2---------
 -5-----------5-----------5-5----- -7-----------3-------3-----------
 -3-----------5-----------5-5----- -7-----------3-------------------
 -------------3-----------3------- -5-----------1------------------- 

v ^ v v ^ v ^ v
I'm not used to liking that
[C]+ . + [G]. + . + . [Am]+ . + [F]. + . + .
 
 -3-----3-----3-------------3----- -5-----5-----1-------1-----------
 -5-----5-----3-------------3----- -5-----5-----1------------------


Important: The song above is NOT stored on the Chordie server. The original song is hosted at www.gitaartabs.nl. Chordie works as a search engine and provides on-the-fly formatting. Chordie does not index songs against artists'/composers' will. To remove this song please click here.

Text color:
Chord color:
Chord grids: 
Font size:    
Page size: 

Am C F G
Rate #1 of 17 versions

Login - add to songbook

SHARE PAGE  




You need to log in to post comments