Guitar Tabs, Chords and Lyrics
Major upgrade!! After one year development the new version of Chordie is now online! Please give feedback.


Up Around the Bend  Creedence Clearwater Revival

> C
1. There's a place up ahead and I'm goin',
[G] just as fast as my feet can [G7]fly.[C]
[C] Come away, come away if you're goin',
[G] leave the sinkin' ship beh[G7]ind.[C]
Com[F]e on the risin' wi[C]nd,[G]
we're goin' [F]up around the[C] bend. Whoooh.[G]
2.[C] Bring a song and a smile for the banjo,
[G] better get while the gettin's go[G7]od.[C]
Hitch a ride to the end of the highway,
[G] where the neons turn to wo[G7]od. + CHO[C]RUS
3.[C] You can ponder perpetual motion,
[G] fiz your mind for a crystal da[G7]y.[C]
Always time for a good conversation,
[G] there's an ear for what you [G7]say. + CHOR[C]US
4.[C] Catch a ride to the end of the highway,
[G] and we'll meet by the big red tre[G7]e.[C]
There's a place up ahead and I'm goin',
[G] come along, come along with me[G7]. + CHORUS[C]
(Creedence Clearwater Revival)
INTRO
[D]Q E Q E E E Q E Q E E E
 
 e -----------------10~~~~-------------- ----------------10~~~~--------------
 B .-----------------------10------10--- -----------------------10------10---
 G -----------9/11-------------11------- ----------9/11-------------11-------
 D ----0-------------------------------- ---0--------------------------------
 A .------------------------------------ ------------------------------------
 E ------------------------------------- ------------------------------------ 

[A]Q E Q E E E [D]Q E Q E E E
 
 e ----------------5~~~~~---------------- ---------------10~~~~~-------------
 B -----------------------5-------5------ ----------------------10------10--.
 G ----------4/6--------------6---------- ---------9/11-------------11------- x2
 D -------------------------------------- ---0-------------------------------
 A ---0---------------------------------- ----------------------------------.
 E -------------------------------------- ----------------------------------- 

VERSE 1
[D]E E E Q E E E E E E Q E E E
 
 e ---------------------------------- ----------------------------------------
 B ---------------3--------------3--- ---(3)----------3------3-------3--------
 G -------2-h-4---2------2-h-4---2--- ---(2)---2-h-4--2----------4---2--------
 D ---0------------------------------ ----------------------------------------
 A ---------------------------------- ----------------------------------------
 E ---------------------------------- ---------------------------------------- 

There's a place up ahead and I'm go - in'
[A]E E E Q Q E E E E [D]Q E S S E
 
 e ---------------------------------- ------------------------2-------2-------
 B ----------------2------2------2--- ---(2)---2-p-0---3------3-------3-------
 G -------2-h-4----2------2------2--- ---(2)---2--(2)--2----------2h4---------
 D ---------------------------------- ----------------------------------------
 A ---0------------------------------ ----------------------------------------
 E ---------------------------------- ---------------------------------------- 

Just as fast as my feet can fly
[D]E E E Q E E E E E E Q E E E
 
 e ---------------------------------- ------------------------------


Important: The song above is NOT stored on the Chordie server. The original song is hosted at www.gitaartabs.nl. Chordie works as a search engine and provides on-the-fly formatting. Chordie does not index songs against artists'/composers' will. To remove this song please click here.

Text color:
Chord color:
Chord grids: 
Font size:    
Page size: 

A C D F G G7
Rate #1 of 19 versions

Login - add to songbook

SHARE PAGE  




You need to log in to post comments