Guitar Tabs, Chords and Lyrics
Major upgrade!! After one year development the new version of Chordie is now online! Please give feedback.


Crippled Inside  John Lennon

chord fingerings for intro:
[EADGBE]  
 
 ------

C1 032010
C2 xxx553
G2 xx5433
F1 xx3211
F3 xx7565
Bb2 xx8766
Intro:
[C1] [C1] [G2] [F1] [C1]  
 
 E -------0-------------------- -------3--1---0------0-------
 B -1-------1---3-----3s5--3--- -1--------------1------1-----
 G ---0---0-------0------------ ---0---4--2-------0----------
 D -2-----------3-----3s5--3--- -2---------------------------
 A ---------------------------- --------------3--------------
 E ---------------------------- ----------------------------- 

[F1] [C2] [F3] [Bb2] [F3] [C2] [F1] [G2] 
 
 E -1-----3-----5-----6---- -5-----3-----1----------3--------
 B ---1-----5-----6-----6-- ---6-----5-----1-----------3-----
 G -2-----5-----5-----7---- -5-----5-----2-----2s4-----------
 D ------------------------ ---------------------------------
 A ------------------------ ---------------------------------
 E ------------------------ ---------------------------------
 E ---0------0------0---------0-- ---0---------------0-----0-----
 B ---1------1------1---------1-- ---1---------------1-----1-----
 G ---0------0------0---------0-- ---0---------------0-----0-----
 D ---2------2------2---0-1-2---- ---2-----2-1-0-----2-----2-----
 A -3-------------3-------------- -------3---------3-------------
 E --------3--------------------- -3----------------------3------
 E ----------------
 B ----------------
 G -------


Important: The song above is NOT stored on the Chordie server. The original song is hosted at www.gitaartabs.nl. Chordie works as a search engine and provides on-the-fly formatting. Chordie does not index songs against artists'/composers' will. To remove this song please click here.

Text color:
Chord color:
Chord grids: 
Font size:    
Page size: 

Bb2 C2 F3 G2
Rate #1 of 7 versions

Login - add to songbook

SHARE PAGE  



You need to log in to post comments