Guitar Tabs, Chords and Lyrics
Major upgrade!! After one year development the new version of Chordie is now online! Please give feedback.


All Over You  Live

Chord suggestion (played as they would in normal tuning):
G F# Bm A D Dsus2 or E Csus2 G# C#m
 
 Eb----3---2---2---0---2---5----0-------0---3-------4----4
 Bb----3---2---3---2---3---5----3-------0---3-------4----5
 Gb----0---3---4---3---2---7----2-------1---5-------5----6
 Db----0---4---4---2---0---7----0-------2---5-------7----6
 Ab----3---4---2---0---x---5----x-------2---3-------7----4
 Eb----3---2---x---x---x---x----x-------0---x-------4----x

Riff 1:
[D] [A] [F#]  
 
 Eb----------2------ I-------------0---------I---------2-------
 Bb------3-----3---3-I-----2h3p2-----2---2---I-----2----2---2--
 Gb----2---2-----2---I---2-------2-----2-----I---3---3----3----
 Db--0---------------I-----------------------I-----------------
 Ab------------------I-0---------------------I-----------------
 Eb------------------I-----------------------I-2---------------

[G] [A]  
 
 Eb------------I-------------I
 Bb------3-----I--------2----I
 Gb---0--------I------2----2-I
 Db------------I-------------I
 Ab------------I---0---------I
 Eb-3-------3--I-------------I

Riff 2:
[Em]  
 
 ---0----0----------------------I -------
 ---0----0----------------------I -------
 ---0----0----------------------I -------
 ---2----2----------------------I -------
 ---2----2----------------------I --s8--
 ---0----0----2----0----2----1--I ------- 

INTRO : G F# Bm A Dsus2 (2x)
VERSE 1 (with riff 1)
[D]Our love is [A]like water
[F#]Pinned down and [G]abused
For [A]being st[D]range
Our love is no other
Then me alone
For me all day
Our love is like water
Pinned down and abused, hey
CHORUS
[G]All [F#]over [Bm]you, [A]all ov[Dsus2]er me
[Dsus2]The sun, the fields, the sky
[G]I've [F#]often[Bm] tried [A]to hold[Dsus2] the sea
[Dsus2]The sun, the fields, the tide
[G]Pay [F#]me n[Bm]ow, l[G]ay [F#]me d[Bm]own [E] [A]

Important: The song above is NOT stored on the Chordie server. The original song is hosted at www.gitaartabs.nl. Chordie works as a search engine and provides on-the-fly formatting. Chordie does not index songs against artists'/composers' will. To remove this song please click here.

Text color:
Chord color:
Chord grids: 
Font size:    
Page size: 

A Bm D Dsus2 E Em F# G
Rate #2 of 15 versions

Jango Player

Login - add to songbook

SHARE PAGE  




You need to log in to post comments