Guitar Tabs, Chords and Lyrics
Server problems seems to be fixed. Chordie has been experiencing problems with songs disappearing. These issues now seems to be fixed, but still verifying the fix. If you find anything strange, please email admin@chordie.com.


Coldest Night  A Day Away

Please Rate and/or give feedback
I'll be only covering the rhythm part
Tabbed by: Mr. Picky
Tuning: DADGBE
Chords used:
[D5] [G5] [A5] [B5] [F#5]  
 
 e||----x---||----x---||----x---||----x---||----x---||
 B||----x---||----x---||----x---||----x---||----x---||
 G||----7---||----x---||----x---||----x---||----x---||
 D||----7---||----5---||----7---||----9---||----4---||
 A||----5---||----5---||----7---||----9---||----4---||
 E||----x---||----5---||----7---||----9---||----4---||

[Intro] (The non-Piano version doesn't really have an intro. But if you really want you
can play this.)
 
 e||--------------------------------------||
 B||--------------------------------------||
 G||---7~-7-5-7---7-5-7~--7-5-7---7-5-7~--||
 D||---7~-------------5~--------------7~--||
 A||---5~-------------5~--------------5~--||
 E||------------------5~------------------||
 e||--------------------------------------||
 B||--------------------------------------||
 G||---7-5-7---7-5-7~--7-5-7~-------------||
 D||---------------5~---------------------||
 A||---------------5~---------------------||
 E||---------------5~---------------------||

[Verse I] (This part is still piano. But here are the chords.)
[D5]Hey you, whatcha been up to?
[G5]It's been about a week or two
[D5]Since I last talked to you, just wa[G5]nna know what's going on
[D5]I'm chillin in my room
[G5]I'm killing time just thinking about you
[D5]And all those things that we've been th[G5]rough
[Pre Cborus] 
[G5]The cold air's coming t[B5]o ta[A5]ke it's place[B5]
[G5]You see it coming, s[B5]o em[A5]brace
[G5]The cold air's coming t[B5]o ta[A5]ke it's place[B5]
[G5]You see it coming, s[B5]o em[A5]brace
[Cborus] 
[D5]And this is the co[G5]ldest night of them all[B5]
The [A5]rain will fre[G5]eze and snow will
(5 strums each then hold)
[D5]fall... To the gr[G5]ound, I'm falling dow[B5]n
I'm st[A5]uck here for ano[G5]ther day
[Verse II] (figure out the strumming pattern)
 
 e||------------------------------------------------------||
 B||------------------------------------------------------||
 G||--------------------------------------------7---------||
 D||---4h5-5-------------------4h5-5------------7--7------||
 A||---4h5-5-------------------4h5-5------------5--7------||
 E||---4h5-5-------------------4h5-5---------------7------||

I'm driving in my car, around town, downtown
 
 e||---------------------------------------------||
 B||---------------------------------------------||
 G||--------------------------------7------------||
 D||---4h5-5------------------------7-------7----||
 A||---4h5-5------------------------5-------7----||
 E||---4h5-5--------------------------------7----||

Hoping I might find you standing there
 
 e||-------------------------------------------------------||
 B||-------------------------------------------------------||
 G||-----------------------------------------------7-------||
 D||---4h5-5-------------------4h5-5---------------7--7----||
 A||---4h5-5-------------------4h5-5---------------5--7----||
 E||---4h5-5-------------------4h5-5------------------7----||

Like the star you are, All the guys are in their car
 
 e||---------------------------------------------------------||
 B||---------------------------------------------------------||
 G||--------------------------------------------7------------||
 D||---4h5-5------------------------------------7-------7----||
 A||---4h5-5------------------------------------5-------7----||
 E||---4h5-5--------------------------------------------7----||

They start to scream your name, It drives me insane
[Repeat Precborus] 
[Repeat Cborus] 
[Bridge] 
[A5]I gave you e[B5]verything [G5]and you just walked out on me
[A5]I gave you e[B5]verything[G5]
[A5]I gave you e[B5]verything [G5]and you just walked out on me
[A5]I gave you e[B5]verything[G5]
[Repeat Cborus 2x] 
[Outro] (same strumming pattern as pre chorus)
[G5]Goodbye with your eyes and their rollin[B5]g
[A5]Goodbye with your eyes and their rollin[B5]g
[G5]Goodbye with your eyes and their rollin[B5]g
[A5]Goodbye with your eyes and their rollin[B5]g
[G5]Goodbye with your eyes and their rollin[B5]g
(Too many times you're right and I'm wrong)
[A5]Goodbye with your eyes and their rollin[B5]g
(Too many times you're right and I'm wrong)
[G5]Goodbye with your eyes and their rollin[B5]g
(Too many times you're right and I'm wrong)
[A5]Goodbye with your eyes
(Too many times you're right)
(Soft strumming starting here)
[G5]Goodbye with your eyes and their rollin[B5]g
[A5]Goodbye with your eyes and their rollin[B5]g
[G5]Goodbye with your eyes and their rollin[B5]g
[A5](silence)[B5]
[G5]Too many times you're right and I'm wro[B5]ng
[A5]This time you were right and I was wron[B5]g
[G5](silence)[B5]
A5~
 
 ------

END
Please rate and/or give feedback.

Important: The song above is NOT stored on the Chordie server. The original song is hosted at www.guitaretab.com. Chordie works as a search engine and provides on-the-fly formatting. Chordie does not index songs against artists'/composers' will. To remove this song please click here.

Text color:
Chord color:
Chord grids: 
Font size:    
Page size: 

A5 B5 D5 F#5 G5
Rate #2 of 2 versions

Jango Player

Login - add to songbook

SHARE PAGE  



You need to log in to post comments