Guitar Tabs, Chords and Lyrics
Server problems seems to be fixed. Chordie has been experiencing problems with songs disappearing. These issues now seems to be fixed, but still verifying the fix. If you find anything strange, please email admin@chordie.com.


The Glorious Fall  A Different Breed of Killer

THE GLORIOUS FALL
As recorded by A Different Breed Of Killer
(From the 2008 Album I, COLOSSUS)
www.myspace.com/adifferentbreedofkiller
Words by Jesse Mainor
Music by A Different Breed Of Killer
Transcribed by Patsyxcore
Gtr I (A E A D Gb B) - 'Right'
Gtr II (A E A D Gb B) - 'Left'
Gtr III (A E A D Gb B) - 'Center'
Gtr IV (A E A D Gb B) - 'Center'
Gtr V (A E A D Gb B) - 'Center Solo'
Gtr VI (A E A D Gb B) - 'Center Solo Harmony'
Intro
Q=120
N.C. GbEb5 D5EbD5 N.C.
[4/4] Gtr I
|-3-| |-3-|
W E E E E E E S S S S S S
 
 |----------||----------------------------|
 |----------||o---------------------------|
 |----------||----------------------------|
 |----------||----------------------------|
 |----------||o-4-1-[1]-0-1-0-------------|
 |----------||--4-1-----0-1-0-5-8-5-4-7-4-|

|
| Gtr II
| |-3-| |-3-|
| W E E E E E E S S S S S S
 
 |----------||----------------------------|
 |----------||o---------------------------|
 |----------||----------------------------|
 |----------||----------------------------|
 |----------||o-4-1-[1]-0-1-0-------------|
 |----------||--4-1-----0-1-0-5-8-5-4-7-4-|
 |-3-| |-3-| |-3-| |-3-| |-3-| |-3-| |-3-| |-3-|

S S S S S S S S S S S S S S S S S S S S S S S S
 
 |-----------------------------------------------------||
 |----------------------------------------------------o||
 |-----------------------------------------------------||
 |-----------------------------------------------------||
 |-------------------1-1-1----------------------------o||
 |-0-0-0-1-1-1-2-2-2-------2-2-2-1-1-1-0-0-0-1-1-1-----||

|
 
 | |-3-| |-3-| |-3-| |-3-| |-3-| |-3-| |-3-| |-3-|

| S S S S S S S S S S S S S S S S S S S S S S S S
 
 |-----------------------------------------------------||
 |----------------------------------------------------o||
 |-----------------------------------------------------||
 |-----------------------------------------------------||
 |-------------------1-1-1----------------------------o||
 |-0-0-0-1-1-1-2-2-2-------2-2-2-1-1-1-0-0-0-1-1-1-----||

GbEb5 D5EbD5N.C.
|-3-| |-3-|
E E E E E E S S S S S S
 
 ||----------------------------|
 ||o---------------------------|
 ||----------------------------|
 ||----------------------------|
 ||o-4-1-[1]-0-1-0-------------|
 ||--4-1-----0-1-0-5-8-5-4-7-4-|

|
| |-3-| |-3-|
| E E E E E E S S S S S S
 
 ||----------------------------|
 ||o---------------------------|
 ||----------------------------|
 ||----------------------------|
 ||o-4-1-[1]-0-1-0-------------|
 ||--4-1-----0-1-0-5-8-5-4-7-4-|
 |-3-| |-3-| |-3-| |-3-| |-3-| |-3-| |-3-| |-3-|

S S S S S S S S S S S S S S S S S S S S S S S S
 
 |---------------------------------------------------||
 |--------------------------------------------------o||
 |---------------------------------------------------||
 |---------------------------------------------------||
 |-------------------1-1-1--------------------------o||
 |-0-0-0-1-1-1-2-2-2-------2-2-2-1-1-1-0-0-0-1-1-1---||

|
 
 | |-3-| |-3-| |-3-| |-3-| |-3-| |-3-| |-3-| |-3-|

| S S S S S S S S S S S S S S S S S S S S S S S S
 
 |---------------------------------------------------||
 |--------------------------------------------------o||
 |---------------------------------------------------||
 |---------------------------------------------------||
 |-------------------4-4-4--------------------------o||
 |-3-3-3-4-4-4-5-5-5-------5-5-5-4-4-4-3-3-3-4-4-4---||

N.C.
 
 |-3-| |-3-| |-3-| |-3-| |-3-| |-3-| |-3-| |-3-|

S S S S S S S S S S S S S S S S S S S S S S S S
 
 |-------------------------------------------------|
 |-------------------------------------------------|
 |-------------------------------------------------|
 |-------------------------------------------------|
 |-------------------1-1-1-------------------------|
 |-0-0-0-1-1-1-2-2-2-------2-2-2-1-1-1-0-0-0-1-1-1-|

|
 
 | |-3-| |-3-| |-3-| |-3-| |-3-| |-3-| |-3-| |-3-|

| S S S S S S S S S S S S S S S S S S S S S S S S
 
 |-------------------------------------------------|
 |-------------------------------------------------|
 |-------------------------------------------------|
 |-------------------------------------------------|
 |-------------------1-1-1-------------------------|
 |-0-0-0-1-1-1-2-2-2-------2-2-2-1-1-1-0-0-0-1-1-1-|
 |-3-| |-3-| |-3-| |-3-| |-3-| |-3-| |-3-| |-3-|

S S S S S S S S S S S S S S S S S S S S S S S S
 
 |--------------------------------------------------|
 |--------------------------------------------------|
 |--------------------------------------------------|
 |--------------------------------------------------|
 |-------------------1-1-1--------------------------|
 |-0-0-0-1-1-1-2-2-2-------2-2-2-1-1-1-0-0-0-1-1-1--|

|
 
 | |-3-| |-3-| |-3-| |-3-| |-3-| |-3-| |-3-| |-3-|

| S S S S S S S S S S S S S S S S S S S S S S S S
 
 |--------------------------------------------------|
 |--------------------------------------------------|
 |--------------------------------------------------|
 |--------------------------------------------------|
 |-------------------1-1-1--------------------------|
 |-0-0-0-1-1-1-2-2-2-------2-2-2-1-1-1-0-0-0-1-1-1--|

N.C. D5
 
 |-3-| |-3-| |-3-| |-3-| |-3-| |-3-|

S S S S S S S S S S S S S S S S S S E E
 
 |-----------------------------------------|
 |-----------------------------------------|
 |-----------------------------------------|
 |-----------------------------------------|
 |-------------------1-1-1-------------0---|
 |-0-0-0-1-1-1-2-2-2-------2-2-2-1-1-1-0---|

|
 
 | |-3-| |-3-| |-3-| |-3-| |-3-| |-3-|

| S S S S S S S S S S S S S S S S S S E E
 
 |-----------------------------------------|
 |-----------------------------------------|
 |-----------------------------------------|
 |-----------------------------------------|
 |-------------------1-1-1-------------0---|
 |-0-0-0-1-1-1-2-2-2-------2-2-2-1-1-1-0---|

"The bitter sweet reality..."
D5EbE5N.C.E5EbD5Eb5 D5EbE5N.C.E5EbD5Eb5
E E E E E E E E E E E E E E E E 4x
 
 ||--------------------|---------------------||
 ||o-------------------|--------------------o||
 ||--------------------|---------------------||
 ||--------------------|---------------------||
 ||o-0-1-2-[1]-2-1-0-1-|-0-1-2-[1]-2-1-0-1--o||
 ||--0-1-2-----2-1-0-1-|-0-1-2-----2-1-0-1---||

|
| E E E E E E E E E E E E E E E E 4x
 
 ||--------------------|---------------------||
 ||o-------------------|--------------------o||
 ||--------------------|---------------------||
 ||--------------------|---------------------||
 ||o-0-1-2-[1]-2-1-0-1-|-0-1-2-[1]-2-1-0-1--o||
 ||--0-1-2-----2-1-0-1-|-0-1-2-----2-1-0-1---||

Fill
Q=228
N.C.
[E] [E] [E] [E] [E] [E] [E] [E] [E] [E] [E] [E] [E] [E] [E] [E]  
 
 |-----------------|-----------------||
 |-----------------|-----------------||
 |-----------------|-----------------||
 |-------4---------|-----------------||
 |-2-----------3---|---2-----2-3-2-3-||
 |---0-0---0-0---0-|-0---0-0---------||

|
| W W
 
 |-----------------|-----------------||
 |-----------------|-----------------||
 |-----------------|-----------------||
 |-----------------|-----------------||
 |-----------------|-----------------||
 |-----------------|-----------------||

"All that's left is the..."
N.C.
[E] [E] [E] [E] [E] [E] [E] [E] [E] [E] [E] [E] [E] [E] [E] [E]  
 
 ||------------------|-----------------|
 ||o-----------------|-----------------|
 ||------------------|-----------------|
 ||--------4---------|-----------------|
 ||o-2-----------3---|---2-----2-3-2-3-|
 ||----0-0---0-0---0-|-0---0-0---------|

|
| E E E E E E E E E E E E E E E E
 
 ||------------------|-----------------|
 ||o-----------------|-----------------|
 ||------------------|-----------------|
 ||--------4---------|-----------------|
 ||o-2-----------3---|---2-----2-3-2-3-|
 ||----0-0---0-0---0-|-0---0-0---------|
 |-3-| |-3-| |-3-| |-3-|

[E] [E] [E] [E] [E] [E] [E] [E] [E] [E] [E] [E] [E] [E] [E] [E] [E] [E] [E] [E]  
 
 |-----------------|---------------------------||
 |-----------------|--------------------------o||
 |-----------------|---------------------------||
 |-------4---------|---------------------------||
 |-2-----------3---|-------------2-2-2--------o||
 |---0-0---0-0---0-|-4-4-4-5-5-5-------5-5-5---||

|
 
 | |-3-| |-3-| |-3-| |-3-|

| E E E E E E E E E E E E E E E E E E E E
 
 |-----------------|---------------------------||
 |-----------------|--------------------------o||
 |-----------------|---------------------------||
 |-------4---------|---------------------------||
 |-2-----------3---|-------------2-2-2--------o||
 |---0-0---0-0---0-|-4-4-4-5-5-5-------5-5-5---||

N.C.
[E] [E] [E] [E] [E] [E] [E] [E] [E] [E] [E] [E] [E] [E] [E] [E]  
 
 ||------------------|-----------------|
 ||o-----------------|-----------------|
 ||------------------|-----------------|
 ||--------4---------|-----------------|
 ||o-2-----------3---|---2-----2-3-2-3-|
 ||----0-0---0-0---0-|-0---0-0---------|

|
| E E E E E E E E E E E E E E E E
 
 ||------------------|-----------------|
 ||o-----------------|-----------------|
 ||------------------|-----------------|
 ||--------7---------|-----------------|
 ||o-5-----------6---|---5-----5-6-5-6-|
 ||----0-0---0-0---0-|-0---0-0---------|
 |-3-| |-3-| |-3-| |-3-|

[E] [E] [E] [E] [E] [E] [E] [E] [E] [E] [E] [E] [E] [E] [E] [E] [E] [E] [E] [E]  
 
 |-----------------|---------------------------||
 |-----------------|--------------------------o||
 |-----------------|---------------------------||
 |-------4---------|---------------------------||
 |-2-----------3---|-------------2-2-2--------o||
 |---0-0---0-0---0-|-4-4-4-5-5-5-------5-5-5---||

|
 
 | |-3-| |-3-| |-3-| |-3-|

| E E E E E E E E E E E E E E E E E E E E
 
 |-----------------|---------------------------||
 |-----------------|--------------------------o||
 |-----------------|---------------------------||
 |-------7---------|---------------------------||
 |-5-----------6---|-------------5-5-5--------o||
 |---0-0---0-0---0-|-7-7-7-8-8-8-------8-8-8---||

F/E/F/N.C. F/B N.F/BN.C.F/E/F/B F/B N.F/BN.F/BN.C.N.F/E/F/B
5/8
E E Q E E Q E Q E E E E E +E E Q E Q E E E E Q
 
 ||----------------|----------------|-----------------|-----------|
 ||o---------------|----------------|-----------------|-----------|
 ||--4s3s4------4--|---4------4s3s4-|-(4)---4----4----|---4s3s4---|
 ||--3s2s3------3--|---3------3s2s3-|-(3)---3----3----|---3s2s3---|
 ||o-2s1s2------2--|---2------2s1s2-|-(2)---2----2----|---2s1s2---|
 ||---------0-0----|-0----0-0-------|-----0----0----0-|-0---------|

|
| E E Q E E Q E Q E E E E E +E E Q E Q E E E E Q
 
 ||----------------|----------------|-----------------|-----------|
 ||o---------------|----------------|-----------------|-----------|
 ||--4s3s4------4--|---4------4s3s4-|-(4)---4----4----|---4s3s4---|
 ||--3s2s3------3--|---3------3s2s3-|-(3)---3----3----|---3s2s3---|
 ||o-2s1s2------2--|---2------2s1s2-|-(2)---2----2----|---2s1s2---|
 ||---------0-0----|-0----0-0-------|-----0----0----0-|-0---------|

1.
[Eb/A] [Eb/A] [Gb/C] [Gb/C] 
[4/4] Q E E E E E E E E E E E E E E Q E E E E E E E E E E E E E E
 
 |----------------|-----------------|----------------|------------------||
 |----------------|-----------------|----------------|-----------------o||
 |-2--------------|-----------------|-5--------------|------------------||
 |-1--1-1-1-1-1---|-1-1---1-1-1-1-1-|-4--4-4-4-4-4---|-4-4---4-4-4-4-4--||
 |-0--0-0-0-0-0---|-0-0---0-0-0-0-0-|-3--3-3-3-3-3---|-3-3---3-3-3-3-3-o||
 |----------------|-----------------|----------------|------------------||

|
| Q E E E E E E E E E E E E E E Q E E E E E E E E E E E E E E
 
 |----------------|-----------------|----------------|------------------||
 |----------------|-----------------|----------------|-----------------o||
 |-2--------------|-----------------|-5--------------|------------------||
 |-1--1-1-1-1-1---|-1-1---1-1-1-1-1-|-4--4-4-4-4-4---|-4-4---4-4-4-4-4--||
 |-0--0-0-0-0-0---|-0-0---0-0-0-0-0-|-3--3-3-3-3-3---|-3-3---3-3-3-3-3-o||
 |----------------|-----------------|----------------|------------------||

"...blood drenched..."
2.
Ebm Cm N.C.
[B] [B] [E] [E] [E] [E] [E] [E] [E] [E] [E] [E] [E] [E] [E] [E] [E] [E]  
 
 |-----------|-----------------|-----------------|
 |-----------|-----------------|-----------------|
 |-----------|-----------------|-----------------|
 |-4----1----|-----------------|-----------------|
 |-6----3----|-5-----5-----5-6-|-4-----4-----4---|
 |-----------|---0-0---0-0-----|---0-0---0-0---0-|

|
| H H W W
 
 |-----------|-----------------|-----------------|
 |-----------|-----------------|-----------------|
 |-----------|-----------------|-----------------|
 |-4----1----|-----------------|-----------------|
 |-6----3----|-----------------|-----------------|
 |-----------|-----------------|-----------------|

[E] [E] [E] [E] [E] [E] [E] [E] [E] [E] [E] [E] [E] [E] [E] [E]  
 
 |-----------------|-----------------|
 |-----------------|-----------------|
 |-----------------|-----------------|
 |-----------------|-----------------|
 |-1-----1-----1---|-0-----0-----0---|
 |---0-0---0-0---0-|---0-0---0-0---0-|

|
| W W
 
 |-----------------|-----------------|
 |-----------------|-----------------|
 |-----------------|-----------------|
 |-----------------|-----------------|
 |-----------------|-----------------|
 |-----------------|-----------------|

D5 N.C. D5 D5 N.C. N.C.
[E] [E] [E] [E] [E] [E] [E] [E] [E] [E] [E] [E] [E] [E] [E] [E] [E] [E] [E] [E] [E] [E] [E] [E] [E] [E] [E] [E] [E] [E] [E] [E]  
 
 |-----------------|-----------------|-----------------|-----------------|
 |-----------------|-----------------|-----------------|-----------------|
 |-----------------|-----------------|-----------------|-----------------|
 |-----------------|-----------------|-----------------|-----------------|
 |-5-----5-----5-6-|-4-----4-----4---|-1-----1-----1---|-0-----0-----0---|
 |---0-0---0-0-----|---0-0---0-0---0-|---0-0---0-0---0-|---0-0---0-0---0-|

|
| E E H Q W E E H Q W
 
 |-----------------|-----------------|-----------------|-----------------|
 |-----------------|-----------------|-----------------|-----------------|
 |-----------------|-----------------|-----------------|-----------------|
 |-----------------|-0---------------|-----------------|-----------------|
 |-0-0-------------|-0---------------|-0-0-------------|-----------------|
 |-0-0-------------|-0---------------|-0-0-------------|-----------------|

N.C.
[E] [E] [E] [E] [E] [E] [E] [E] [E] [E] [E] [E] [E] [E] [E] [E]  
 
 ||------------------|-----------------|
 ||o-----------------|-----------------|
 ||------------------|-----------------|
 ||------------------|-----------------|
 ||o-5-----5-----5-6-|-7-----7-----7---|
 ||----0-0---0-0-----|---0-0---0-0---0-|

|
| E E E E E E E E E E E E E E E E
 
 ||------------------|-----------------|
 ||o-----------------|-----------------|
 ||------------------|-----------------|
 ||------------------|-5-----5-----5---|
 ||o-5-----5-----5-6-|-----------------|
 ||----0-0---0-0-----|---0-0---0-0---0-|

[E] [E] [E] [E] [E] [E] [E] [E] [E] [E] [E] [E] [E] [E] [E] [E]  
 
 |--------------------|----------------------|
 |--------------------|----------------------|
 |--------------------|----------------------|
 |--------------------|-----------8----------|
 |-10-----10-----10---|-12---8-12---12-10-8--|
 |----0-0----0-0----0-|----0-----------------|

|
| E E E E E E E E E E E E E E E E
 
 |--------------------|----------------------|
 |--------------------|----------------------|
 |--------------------|----------------------|
 |--8------8------8---|-----------8----------|
 |--------------------|-12---8-12---12-10-8--|
 |----0-0----0-0----0-|----0-----------------|

N.C.
[E] [E] [E] [E] [E] [E] [E] [E] [E] [E] [E] [E] [E] [E] [E] [E]  
 
 |-----------------|-----------------|
 |-----------------|-----------------|
 |-----------------|-----------------|
 |-----------------|-----------------|
 |-5-----5-----5-6-|-7-----7-----7---|
 |---0-0---0-0-----|---0-0---0-0---0-|

|
| E E E E E E E E E E E E E E E E
 
 |-----------------|-----------------|
 |-----------------|-----------------|
 |-----------------|-----------------|
 |-----------------|-5-----5-----5---|
 |-5-----5-----5-6-|-----------------|
 |---0-0---0-0-----|---0-0---0-0---0-|

[E] [E] [E] [E] [E] [E] [E] [E] [E] [E] [E] [E] [E] [E] [E] [E]  
 
 |--------------------|--------------------------||
 |--------------------|-------------------------o||
 |--------------------|--------------------------||
 |--------------------|-------------10-----------||
 |-10-----10-----10---|-12-10-12-13----13-12-10-o||
 |----0-0----0-0----0-|--------------------------||

|
| E E E E E E E E E E E E E E E E
 
 |--------------------|--------------------------||
 |--------------------|-------------------------o||
 |--------------------|--------------------------||
 |--8------8------8---|-------------10-----------||
 |--------------------|-12-10-12-13----13-12-10-o||
 |----0-0----0-0----0-|--------------------------||

Build-up
[Bb5/F] W [G5/D]W
 
 ||-----------------------------------|---------------------------------|
 ||o----------------------------------|---------------------------------|
 ||--10-------------------------------|-7-------------------------------|
 ||---8-------------------------------|-5-------------------------------|
 ||o--8-------------------------------|-5-------------------------------|
 ||-----------------------------------|---------------------------------|

|
| S S S S S S S S S S S S S S S S S S S S S S S S S S S S S S S S
 
 ||-----------------------------------|---------------------------------|
 ||o----------------------------------|---------------------------------|
 ||-----------------------------------|---------------------------------|
 ||-----------------------------------|---------------------------------|
 ||o--8-8-8-8-8-8-8-8-8-8-8-8-8-8-8-8-|-5-5-5-5-5-5-5-5-5-5-5-5-5-5-5-5-|
 ||-----------------------------------|---------------------------------|

[D5]W [A/Db]W
 
 |---------------------------------|------------------------------------|
 |---------------------------------|------------------------------------|
 |-7-------------------------------|-6----------------------------------|
 |-7-------------------------------|-7----------------------------------|
 |-5-------------------------------|-4----------------------------------|
 |---------------------------------|------------------------------------|

|
| S S S S S S S S S S S S S S S S S S S S S S S S S S S S S S S S
 
 |---------------------------------|------------------------------------|
 |---------------------------------|------------------------------------|
 |---------------------------------|------------------------------------|
 |---------------------------------|------------------------------------|
 |-5-5-5-5-5-5-5-5-5-5-5-5-5-5-5-5-|-4-4-4-4-4-4-4-4-4-4-4-4-4-4-4-4----|
 |---------------------------------|------------------------------------|

1.
[Bb5/F] W [Bb/D]W
 
 |----------------------------------|---------------------------------|
 |----------------------------------|---------------------------------|
 |-10-------------------------------|-7-------------------------------|
 |--8-------------------------------|-8-------------------------------|
 |--8-------------------------------|-5-------------------------------|
 |----------------------------------|---------------------------------|

|
| S S S S S S S S S S S S S S S S S S S S S S S S S S S S S S S S
 
 |----------------------------------|---------------------------------|
 |----------------------------------|---------------------------------|
 |----------------------------------|---------------------------------|
 |----------------------------------|---------------------------------|
 |--5-5-5-5-7-7-7-7-8-8-8-8-8-8-8-8-|-5-5-5-5-5-5-5-5-5-5-5-5-5-5-5-5-|
 |----------------------------------|---------------------------------|

[D5]W +W
 
 |---------------------------------------------|---------------------------||
 |---------------------------------------------|--------------------------o||
 |-7-------------------------------------------|-(7)-----------------------||
 |-7-------------------------------------------|-(7)-----------------------||
 |-5-------------------------------------------|-(5)----------------------o||
 |---------------------------------------------|---------------------------||

|
| S S S S S S S S S S S S S S S S S S S S S S S S S S S S S S S S
 
 |---------------------------------------------|--------------------------------------------------||
 |---------------------------------------------|-------------------------------------------------o||
 |---------------------------------------------|--------------------------------------------------||
 |---------------------------------------------|-12--12-12-12-------------------------------------||
 |-5-5-5-5-10-10-10-10-12-12-12-12-13-13-13-13-|--------------13-13-13-13-12-12-12-12-10-10-10-10o||
 |---------------------------------------------|--------------------------------------------------||

2.
Bb/D N.C.
W E E E E E E E E
 
 |----------------------------------|-----------------||
 |----------------------------------|-----------------||
 |-10-------------------------------|-----------------||
 |--8-------------------------------|-----------------||
 |--8-------------------------------|---------5-------||
 |----------------------------------|-0-5-7-8---8-7-0-||

|
| S S S S S S S S S S S S S S S S W
 
 |----------------------------------|-----------------||
 |----------------------------------|-----------------||
 |----------------------------------|-----------------||
 |----------------------------------|-----------------||
 |--8-8-8-8-8-8-8-8-8-8-8-8-8-8-8-8-|-----------------||
 |----------------------------------|-----------------||

"I will make a worthy..."
Q=141
[D5]Gtr III
|-3-|
E E S S S E E S E S E E E S E S E S E S E
 
 |-----------------------|---------------------|
 |-----------------------|---------------------|
 |-----------------------|---------------------|
 |-----------------------|---------------------|
 |-0---0-0-0-0---0-0-0-0-|---0---0---0---0-----|
 |-0---0-0-0-0---0-0-0-0-|---0---0---0---0-----|

|
| Gtr IV
| |-3-|
| E E S S S E E S E S E E E S E S E S E S E
 
 |-----------------------|---------------------|
 |-----------------------|---------------------|
 |-----------------------|---------------------|
 |-----------------------|---------------------|
 |-0---0-0-0-0---0-0-0-0-|---0---0---0---0-----|
 |-0---0-0-0-0---0-0-0-0-|---0---0---0---0-----|

|-3-|
E E S S S E E S E S E E E S E S E S E S E
 
 |-----------------------|-----------------------|
 |-----------------------|-----------------------|
 |-----------------------|-----------------------|
 |-----------------------|-----------------------|
 |-0---0-0-0-0---0-0-0-0-|---0---0---0---0-------|
 |-0---0-0-0-0---0-0-0-0-|---0---0---0---0-------|

|
| |-3-|
| E E S S S E E S E S E E E S E S E S E S E
 
 |-----------------------|-----------------------|
 |-----------------------|-----------------------|
 |-----------------------|-----------------------|
 |-----------------------|-----------------------|
 |-0---0-0-0-0---0-0-0-0-|---0---0---0---0-------|
 |-0---0-0-0-0---0-0-0-0-|---0---0---0---0-------|

[D5] 5[Eb5]/8
 
 |-3-| |-3-| |-3-|

E E S S S E E S E S E E E S E S E S E S E S S S S S S S S S E S
 
 |-----------------------|---------------------|-----------------------|
 |-----------------------|---------------------|-----------------------|
 |-----------------------|---------------------|-----------------------|
 |-----------------------|---------------------|-----------------------|
 |-0---0-0-0-0---0-0-0-0-|---0---0---0---0-----|-1-1-1-1---1-1-1-1-----|
 |-0---0-0-0-0---0-0-0-0-|---0---0---0---0-----|-1-1-1-1---1-1-1-1-----|

|
 
 | |-3-| |-3-| |-3-|

| E E S S S E E S E S E E E S E S E S E S E S S S S S S S S S E S
 
 |-----------------------|---------------------|-----------------------|
 |-----------------------|---------------------|-----------------------|
 |-----------------------|---------------------|-----------------------|
 |-----------------------|---------------------|-----------------------|
 |-0---0-0-0-0---0-0-0-0-|---0---0---0---0-----|-1-1-1-1---1-1-1-1-----|
 |-0---0-0-0-0---0-0-0-0-|---0---0---0---0-----|-1-1-1-1---1-1-1-1-----|

[A5]  
[4/4] |-3-|
E E S S S E E S E S E E E S E S E S E S E
 
 |-----------------------|---------------------|
 |-----------------------|---------------------|
 |-----------------------|---------------------|
 |-----------------------|---------------------|
 |-7---7-7-7-7---7-7-7-7-|---7---7---7---7-----|
 |-7---7-7-7-7---7-7-7-7-|---7---7---7---7-----|

|
| |-3-|
| E E S S S E E S E S E E E S E S E S E S E
 
 |-----------------------|---------------------|
 |-----------------------|---------------------|
 |-----------------------|---------------------|
 |-----------------------|---------------------|
 |-7---7-7-7-7---7-7-7-7-|---7---7---7---7-----|
 |-7---7-7-7-7---7-7-7-7-|---7---7---7---7-----|

|-3-|
E E S S S E E S E S E E E S E S E S E S E
 
 |-----------------------|---------------------|
 |-----------------------|---------------------|
 |-----------------------|---------------------|
 |-----------------------|---------------------|
 |-7---7-7-7-7---7-7-7-7-|---7---7---7---7-----|
 |-7---7-7-7-7---7-7-7-7-|---7---7---7---7-----|

|
| |-3-|
| E E S S S E E S E S E E E S E S E S E S E
 
 |-----------------------|---------------------|
 |-----------------------|---------------------|
 |-----------------------|---------------------|
 |-----------------------|---------------------|
 |-7---7-7-7-7---7-7-7-7-|---7---7---7---7-----|
 |-7---7-7-7-7---7-7-7-7-|---7---7---7---7-----|

[A5] 5[Eb5]/8
 
 |-3-| |-3-| |-3-|

E E S S S E E S E S E E E S E S E S E S E S S S S S S S S S E S
 
 |-----------------------|---------------------|-----------------------||
 |-----------------------|---------------------|-----------------------||
 |-----------------------|---------------------|-----------------------||
 |-----------------------|---------------------|-----------------------||
 |-7---7-7-7-7---7-7-7-7-|---7---7---7---7-----|-1-1-1-1---1-1-1-1-----||
 |-7---7-7-7-7---7-7-7-7-|---7---7---7---7-----|-1-1-1-1---1-1-1-1-----||

|
 
 | |-3-| |-3-| |-3-|

| E E S S S E E S E S E E E S E S E S E S E S S S S S S S S S E S
 
 |-----------------------|---------------------|-----------------------||
 |-----------------------|---------------------|-----------------------||
 |-----------------------|---------------------|-----------------------||
 |-----------------------|---------------------|-----------------------||
 |-7---7-7-7-7---7-7-7-7-|---7---7---7---7-----|-1-1-1-1---1-1-1-1-----||
 |-7---7-7-7-7---7-7-7-7-|---7---7---7---7-----|-1-1-1-1---1-1-1-1-----||

Interlude
Gb/Bb N.C. F/A
[4/4]  
 
 |--3--| |--3--|

Q Q Q E +E S S E +E S E S E Q Q Q
 
 |--------------------------|----------------------|
 |--------------------------|----------------------|
 |--------------------------|----------------------|
 |-11-11-11-----------------|-------------10-10-10-|
 |--9--9--9-----------------|--------------8--8--8-|
 |--8--8--8-1b4r(1)-0-0-1b4r|=(1)-0-0-0-0--7--7--7-|

|
 
 | |--3--| |--3--|

| Q Q Q E +E S S E +E S E S E Q Q Q
 
 |--------------------------|----------------------|
 |--------------------------|----------------------|
 |--------------------------|----------------------|
 |-11-11-11-----------------|-------------10-10-10-|
 |--9--9--9-----------------|--------------8--8--8-|
 |--8--8--8-1b4r(1)-0-0-1b4r|=(1)-0-0-0-0--7--7--7-|

N.C. Gb/Bb N.C.
6/8
|--3--|
S S S S Q Q Q S S S S S S S S S S S S S S S S
 
 |------------------------------|-------------------------------------|
 |------------------------------|-------------16-19-16----------------|
 |------------------------------|-15----------------------------------|
 |---------11-11-11----15-16-18-|----18-16-15----------16-15----------|
 |----------9--9--9-16----------|----------------------------18-16-15-|
 |-1-1-1-1--8--8--8-------------|-------------------------------------|

|
| |--3--|
| S S S S Q Q Q Q H Q
 
 |------------------------------|-------------------------------------|
 |------------------------------|-------------------------------------|
 |------------------------------|-------------------------------------|
 |---------11-11-11-------------|-------------------------------------|
 |----------9--9--9-------------|-------------------------------------|
 |-1-1-1-1--8--8--8-------------|-------------------------------------|

F/A Gb/Bb N.C.
[4/4]  
 
 |--3--| |--3--|

Q Q Q Q Q Q E +E S S E +E S E S E
 
 |-------------------|-----------------------------|
 |-------------------|-----------------------------|
 |-------------------|-----------------------------|
 |-10-10-10-11-11-11-|-----------------------------|
 |--8--8--8--9--9--9-|-----------------------------|
 |--7--7--7--8--8--8-|-1b4r(1)-0-0-1b4r(1)-0-0-0-0-|

|
 
 | |--3--| |--3--|

| Q Q Q Q Q Q E +E S S E +E S E S E
 
 |-------------------|-----------------------------|
 |-------------------|-----------------------------|
 |-------------------|-----------------------------|
 |-10-10-10-11-11-11-|-----------------------------|
 |--8--8--8--9--9--9-|-----------------------------|
 |--7--7--7--8--8--8-|-1b4r(1)-0-0-1b4r(1)-0-0-0-0-|

F/A N.C. Gb/Bb N.C.
[5/4] [4/4]  
 
 |--3--| |--3--|

Q Q Q S S S S Q Q Q E E E Q E E E
 
 |---------------------------|-------------/14-13----|
 |---------------------------|---/14-13--------------|
 |---------------------------|-----------------------|
 |-10-10-10---------11-11-11-|-----------------------|
 |--8--8--8----------9--9--9-|-----------------------|
 |--7--7--7-1-1-1-1--8--8--8-|-----------------------|

|
 
 | |--3--| |--3--|

| Q Q Q S S S S Q Q Q E E E Q E E E
 
 |---------------------------|-------------/18-16----|
 |---------------------------|---/18-16--------------|
 |---------------------------|-----------------------|
 |-10-10-10---------11-11-11-|-----------------------|
 |--8--8--8----------9--9--9-|-----------------------|
 |--7--7--7-1-1-1-1--8--8--8-|-----------------------|

[F/A] [F5] [Gb/Bb] [F/A] [Gb/Bb]  
 
 |--3--| |-3-| |--3--| |--3--| |--3--|

Q Q Q Q Q Q Q Q Q H H Q Q Q H Q Q Q
 
 |----------------|---------------|---------------|---------------|
 |----------------|---------------|---------------|---------------|
 |----------------|---------------|---------------|---------------|
 |-10-10-10-------|-11-11-11------|------10-10-10-|------11-11-11-|
 |--8--8--8-3-3-3-|--9--9--9------|-------8--8--8-|-------9--9--9-|
 |--7--7--7-3-3-3-|--8--8--8------|-------7--7--7-|-------8--8--8-|

|
 
 | |--3--| |-3-| |--3--| |--3--| |--3--|

| Q Q Q Q Q Q Q Q Q H H Q Q Q H Q Q Q
 
 |----------------|---------------|---------------|---------------|
 |----------------|---------------|---------------|---------------|
 |----------------|---------------|---------------|---------------|
 |-10-10-10-------|-11-11-11------|------10-10-10-|------11-11-11-|
 |--8--8--8-3-3-3-|--9--9--9------|-------8--8--8-|-------9--9--9-|
 |--7--7--7-3-3-3-|--8--8--8------|-------7--7--7-|-------8--8--8-|

[F/A] [Gb/Bb]  
 
 |--3--| |--3--|

W Q Q Q Q Q Q
 
 |----------|-------------------|
 |----------|-------------------|
 |----------|-------------------|
 |----------|-10-10-10-11-11-11-|
 |----------|--8--8--8--9--9--9-|
 |----------|--7--7--7--8--8--8-|

|
 
 | |--3--| |--3--|

| W Q Q Q Q Q Q
 
 |----------|-------------------|
 |----------|-------------------|
 |----------|-------------------|
 |----------|-10-10-10-11-11-11-|
 |----------|--8--8--8--9--9--9-|
 |----------|--7--7--7--8--8--8-|

N.C. F/A N.C. Gb/Bb
[5/4]  
 
 |--3--| |--3--|

E +E S S E +E S E S E Q Q Q S S S S Q Q Q
 
 |-----------------------------|----------------------------|
 |-----------------------------|----------------------------|
 |-----------------------------|----------------------------|
 |-----------------------------|-10-10-10---------11-11-11--|
 |-----------------------------|--8--8--8----------9--9--9--|
 |-1b4r(1)-0-0-1b4r(1)-0-0-0-0-|--7--7--7-1-1-1-1--8--8--8--|

|
 
 | |--3--| |--3--|

| E +E S S E +E S E S E Q Q Q S S S S Q Q Q
 
 |-----------------------------|----------------------------|
 |-----------------------------|----------------------------|
 |-----------------------------|----------------------------|
 |-----------------------------|-10-10-10---------11-11-11--|
 |-----------------------------|--8--8--8----------9--9--9--|
 |-1b4r(1)-0-0-1b4r(1)-0-0-0-0-|--7--7--7-1-1-1-1--8--8--8--|

4[Gb/Bb]/4 5[Gb/F/A]/8 4/4
 
 |--3--| |--3--|

E Q Q Q E E E E Q Q Q W
 
 |-------------------|-------------|------||
 |-------------------|-------------|------||
 |-------------------|-------------|------||
 |-11-x-11-11-x-11-x-|-11-10-10-10-|------||
 |--9-x--9--9-x--9-x-|--9--8--8--8-|------||
 |--8-x--8--8-x--8-x-|--8--7--7--7-|------||

|
 
 | |--3--| |--3--|

| E Q Q Q E E E E Q Q Q W
 
 |-------------------|-------------|------||
 |-------------------|-------------|------||
 |-------------------|-------------|------||
 |-11-x-11-11-x-11-x-|-11-10-10-10-|------||
 |--9-x--9--9-x--9-x-|--9--8--8--8-|------||
 |--8-x--8--8-x--8-x-|--8--7--7--7-|------||

"I was the genocide."
Q=228
[A5]E E E E Q E E [A5]E E H [F5]E E
 
 |----------------|--------------|
 |----------------|--------------|
 |----------------|--------------|
 |----------------|--------------|
 |-7-7-7-7----7-7-|-7-7------3-3-|
 |-7-7-7-7----7-7-|-7-7------3-3-|

|
| E E E E Q E E E E H E E
 
 |----------------|--------------|
 |----------------|--------------|
 |----------------|--------------|
 |----------------|--------------|
 |-7-7-7-7----7-7-|-7-7------3-3-|
 |-7-7-7-7----7-7-|-7-7------3-3-|

[F5]E E Q [A5]E E E E [A5]Q E E E E Q [F5]Q E E E E Q
 
 |----------------|---------------|---------------|
 |----------------|---------------|---------------|
 |----------------|---------------|---------------|
 |----------------|---------------|---------------|
 |-3-3----7-7-7-7-|----7-7-7-7----|----3-3-3-3----|
 |-3-3----7-7-7-7-|----7-7-7-7----|----3-3-3-3----|

|
| E E Q E E E E Q E E E E Q Q E E E E Q
 
 |----------------|---------------|---------------|
 |----------------|---------------|---------------|
 |----------------|---------------|---------------|
 |----------------|---------------|---------------|
 |-3-3----7-7-7-7-|----7-7-7-7----|----3-3-3-3----|
 |-3-3----7-7-7-7-|----7-7-7-7----|----3-3-3-3----|

Q=122
[E5]H +Q E E [F5]H [Ab5]H [E5]H +Q E E [F5]H [Ab5]H
 
 ||----------------|--------------|---------------|----------------|
 ||o---------------|--------------|---------------|----------------|
 ||----------------|--------------|---------------|----------------|
 ||--2----(2)------|-3----6-------|-2----(2)------|-3----6---------|
 ||o-2----(2)--2-2-|-3----6-------|-2----(2)--2-2-|-3----6---------|
 ||--2----(2)--2-2-|-3----6-------|-2----(2)--2-2-|-3----6---------|

|
| H +Q E E H E E E E H +Q E E H E E E E
 
 ||----------------|--------------|---------------|----------------|
 ||o---------------|--------------|---------------|----------------|
 ||----------------|------4-5-4-2-|-4----(4)--5-7-|-9----9-10-9-7--|
 ||--2----(2)------|-3----x-x-x-x-|-x---------x-x-|-x----x--x-x-x--|
 ||o-2----(2)--2-2-|-3----2-3-2-0-|-2----(2)--3-5-|-7----7--8-7-5--|
 ||--2----(2)--2-2-|-3------------|---------------|----------------|

[G5] |-3-|[E5]
E E E E Q Q Q H +Q E E
 
 |----------------|------------------|
 |----------------|------------------|
 |----------------|------------------|
 |----------------|--2-----(2)-------|
 |-5--5-5-5-5-5-5-|--2-----(2)--2--2-|
 |-5--5-5-5-5-5-5-|--2-----(2)--2--2-|

|
| |-3-|
| E E E E Q Q Q H +Q E E
 
 |----------------|-12----(12)-------|
 |----------------|------------------|
 |-9-10-9-7-7-7-7-|--9-----(9)--9-10-|
 |-x--x-x-x-x-x-x-|--x----------x--x-|
 |-7--8-7-5-5-5-5-|--7-----(7)--7--8-|
 |----------------|------------------|

[F5] H [Ab5] H [E5]H +Q E E [F5] H [Ab5] H
 
 |----------------|----------------|---------------|
 |----------------|----------------|---------------|
 |----------------|----------------|---------------|
 |--3-----6-------|-2----(2)-------|--3-------6----|
 |--3-----6-------|-2----(2)--2--2-|--3-------6----|
 |--3-----6-------|-2----(2)--2--2-|--3-------6----|

|
| H Q E E H +Q E E Q Q H
 
 |----------------|----------------|---------------|
 |----------------|----------------|---------------|
 |-13----10--9-10-|-9----(9)--9-10-|-13--16--17----|
 |--x-----x--x--x-|-x---------x--x-|--x---x---x----|
 |-11-----8--7--8-|-7----(7)--7--8-|-11--14--15----|
 |----------------|----------------|---------------|

1.228
[A5]E E E E Q E E [A5]E E H [F5]E E
 
 |----------------|--------------|
 |----------------|--------------|
 |----------------|--------------|
 |----------------|--------------|
 |-7-7-7-7----7-7-|-7-7------3-3-|
 |-7-7-7-7----7-7-|-7-7------3-3-|

|
| E E E E Q E E E E H E E
 
 |----------------|--------------|
 |----------------|--------------|
 |----------------|--------------|
 |----------------|--------------|
 |-7-7-7-7----7-7-|-7-7------3-3-|
 |-7-7-7-7----7-7-|-7-7------3-3-|

[F5]E E Q [A5]E E E E [A5]Q E E E E Q [F5]Q E E E E Q
 
 |----------------|---------------|---------------|
 |----------------|---------------|---------------|
 |----------------|---------------|---------------|
 |----------------|---------------|---------------|
 |-3-3----7-7-7-7-|----7-7-7-7----|----3-3-3-3----|
 |-3-3----7-7-7-7-|----7-7-7-7----|----3-3-3-3----|

|
| E E Q E E E E Q E E E E Q Q E E E E Q
 
 |----------------|---------------|---------------|
 |----------------|---------------|---------------|
 |----------------|---------------|---------------|
 |----------------|---------------|---------------|
 |-3-3----7-7-7-7-|----7-7-7-7----|----3-3-3-3----|
 |-3-3----7-7-7-7-|----7-7-7-7----|----3-3-3-3----|

[A5]Gtr I[A5] [F5]
E E E E Q E E E E H E E
 
 |----------------|-----------------|
 |----------------|-----------------|
 |----------------|-----------------|
 |----------------|-----------------|
 |-7-7-7-7----7-7-|-7-7---------3-3-|
 |-7-7-7-7----7-7-|-7-7---------3-3-|

|
| Gtr II
| E E E E H Q E E E E E E
 
 |----------------|-----------------|
 |----------------|-----------------|
 |----------------|-----------------|
 |----------------|-----------------|
 |-7-7-7-7--------|-----7-7-7-7-3-3-|
 |-7-7-7-7--------|-----7-7-7-7-3-3-|

[F5]E E Q [A5]E E E E [A5]Q E E E E Q [F5]Q E E E E Q
 
 |----------------|---------------|----------------||
 |----------------|---------------|---------------o||
 |----------------|---------------|----------------||
 |----------------|---------------|----------------||
 |-3-3----7-7-7-7-|----7-7-7-7----|----3-3-3-3----o||
 |-3-3----7-7-7-7-|----7-7-7-7----|----3-3-3-3-----||

|
| E E Q E E E E Q E E E E Q Q E E E E Q
 
 |----------------|---------------|----------------||
 |----------------|---------------|---------------o||
 |----------------|---------------|----------------||
 |----------------|---------------|----------------||
 |-3-3----7-7-7-7-|----7-7-7-7----|----3-3-3-3----o||
 |-3-3----7-7-7-7-|----7-7-7-7----|----3-3-3-3-----||

Weird time sig. part
2.122
N.C.
S E S E S S S S E S S S S S S S S E S S S S E S E S [3/16] S S S 4x
 
 ||----------------------------|---------------------------|----------||
 ||o---------------------------|---------------------------|---------o||
 ||----------------------------|---------------------------|----------||
 ||----------------5-----------|-----------------5---------|-------8--||
 ||o-4---3---3-4-5-----5---4---|-4-4---3---3-4-5-----5---4-|-6--7----o||
 ||----------------------------|---------------------------|----------||

|
| S E S E S S S S E S S S S S S S S E S S S S E S E S S S S 4x
 
 ||----------------------------|---------------------------|----------||
 ||o---------------------------|---------------------------|---------o||
 ||----------------------------|---------------------------|----------||
 ||----------------8-----------|-----------------8---------|------11--||
 ||o-7---6---6-7-8-----8---7---|-7-7---6---6-7-8-----8---7-|-9-10----o||
 ||----------------------------|---------------------------|----------||

"...from this moment on."
[D5]  
[4/4] Gtr III
E S E S S S S S S S E S S S S E S S S S S E S S S S S
 
 ||----------------------------|-----------------------------|
 ||o---------------------------|-----------------------------|
 ||----------------------------|-----------------------------|
 ||----------------------------|-----------------------------|
 ||o-0---0---0-0-0---0---0---0-|-0---0---0-0-0---0---0-0-0-0-|
 ||--0---0---0-0-0---0---0---0-|-0---0---0-0-0---0---0-0-0-0-|

|
| Gtr IV
| E S E S S S S S S S E S S S S E S S S S S E S S S S S
 
 ||----------------------------|-----------------------------|
 ||o---------------------------|-----------------------------|
 ||----------------------------|-----------------------------|
 ||----------------------------|-----------------------------|
 ||o-0---0---0-0-0---0---0---0-|-0---0---0-0-0---0---0-0-0-0-|
 ||--0---0---0-0-0---0---0---0-|-0---0---0-0-0---0---0-0-0-0-|

[D5]E S E S S S S S S S E S S S S E S S S S S E S S S S S
 
 |---------------------------|------------------------------|
 |---------------------------|------------------------------|
 |---------------------------|------------------------------|
 |---------------------------|------------------------------|
 |-0---0---0-0-0---0---0---0-|-0---0---0-0-0---0---0-0-0-0--|
 |-0---0---0-0-0---0---0---0-|-0---0---0-0-0---0---0-0-0-0--|

|
| E S E S S S S S S S E S S S S E S S S S S E S S S S S
 
 |---------------------------|------------------------------|
 |---------------------------|------------------------------|
 |---------------------------|------------------------------|
 |---------------------------|------------------------------|
 |-0---0---0-0-0---0---0---0-|-0---0---0-0-0---0---0-0-0-0--|
 |-0---0---0-0-0---0---0---0-|-0---0---0-0-0---0---0-0-0-0--|

[Bb5]E S E S S S S S S S E S S S S E S S S S S E S S S S S
 
 |---------------------------|------------------------------|
 |---------------------------|------------------------------|
 |---------------------------|------------------------------|
 |-3---3---3-3-3---3---3---3-|-3---3---3-3-3---3---3-3-3-3--|
 |-1---1---1-1-1---1---1---1-|-1---1---1-1-1---1---1-1-1-1--|
 |---------------------------|------------------------------|

|
| E S E S S S S S S S E S S S S E S S S S S E S S S S S
 
 |---------------------------|------------------------------|
 |---------------------------|------------------------------|
 |---------------------------|------------------------------|
 |-3---3---3-3-3---3---3---3-|-3---3---3-3-3---3---3-3-3-3--|
 |-1---1---1-1-1---1---1---1-|-1---1---1-1-1---1---1-1-1-1--|
 |---------------------------|------------------------------|

[G5]E S E S S S S S S S E S S S S E S S S S S E S S S S S
 
 |---------------------------|-------------------------------||
 |---------------------------|------------------------------o||
 |---------------------------|-------------------------------||
 |---------------------------|-------------------------------||
 |-5---5---5-5-5---5---5---5-|-5---5---5-5-5---5---5-5-5-5--o||
 |-5---5---5-5-5---5---5---5-|-5---5---5-5-5---5---5-5-5-5---||

|
| E S E S S S S S S S E S S S S E S S S S S E S S S S S
 
 |---------------------------|-------------------------------||
 |---------------------------|------------------------------o||
 |---------------------------|-------------------------------||
 |-------------------------

Important: The song above is NOT stored on the Chordie server. The original song is hosted at www.guitaretab.com. Chordie works as a search engine and provides on-the-fly formatting. Chordie does not index songs against artists'/composers' will. To remove this song please click here.

Text color:
Chord color:
Chord grids: 
Font size:    
Page size: 

A5 Ab5 B Bb/D Bb5 Bb5/F D5 E E5 Eb5 F5 G5 G5/D Gb/C
Rate #2 of 2 versions

Login - add to songbook

SHARE PAGE  



You need to log in to post comments