Guitar Tabs, Chords and Lyrics
Major upgrade!! After one year development the new version of Chordie is now online! Please give feedback.


Conviction  Absent Element

http://www.absentelement.com/
NOTE: The recording I had was not the best quality, and the lead guitar was very quiet,
there is a possibility not every part of the tab I have is correct, but I did my best.
Tuning: I used Drop D, but I'm not sure what it is really.
chords played:
[F] [Eb] [C#] [A#] [C]  
 
 E|---|---|---|---|---|
 B|-6-|-4-|-6-|-3-|-5-|
 G|-5-|-3-|-6-|-3-|-5-|
 D|-3-|-1-|-6-|-3-|-5-|
 A|-3-|-1-|-4-|-1-|-3-|
 D|-3-|-1-|---|---|---|

NOTE: The chord letters right above the tab show the rhythm guitar's chords.
The chord letter above that is the bass notes.
INTRO (0:00-0:21)
 
 E|-------------|-------------|---------------| |---------------|
 B|-------------|-------------|---------------| |---------------|
 G|-------------|-------------|---------------| |---------6-8---|
 D|-8~8~8~~8-8--|-8~8~8~~8-8--|--8~6~8~~6-8b--| |-----6-8-------|
 A|-------------|-------------|---------------| |-6-8-----------|
 D|-------------|-------------|---------------| |---------------|
 The second time, skip this-----------^
 Play this instead----------------------------------------^

VERSE (0:22-0:47)
[F] [Eb] [C#]  
[F] [Eb] [C#]  
 
 E|-------------|----------------------------|
 B|-------------|----------------------------|
 G|-------------|-------------8~-6---8~-6----|
 D|-8~8~8~~8-8--|-8~8~8------------8------8-6|
 A|-------------|----------------------------|
 D|-------------|----------------------------|

Open up the..with again...
Read it off...at a time...
Tired of.....tion and your lies
Right do you..point at me..
PRE-CHORUS (0:48-1:03)
[Eb] [F] [C#] [Eb] [F] 
[Eb] [A#] [C#] [F] [C#] [Eb] [A#]  
 
 |-----|----|---------| |-------|----|
 |-----|----|---------| |-------|----|
 |-----|----|---------| |-------|----|
 |-==--|-==-|---==----|x2 |--==---|-==-|
 |-----|----|---------| |-------|----|
 |-----|----|---------| |-------|----|

Sittin......coffee Cannot save me
PRE-CHORUS 2 (1:04-1:28)
Chords:
Eb F C D# A# C F (figure the pattern on ur own)
[Eb] [F] [C] [D#] [A#] [C] [F]  
 
 |------------|-----------|--------------------------|
 |-8/10/5-5/8-|-8/3-3-3/5-|--------------------------|
 |-8/10/5-5/8-|-8/3-3-3/5-|----------------------6-8-|
 |-8/10/5-5/8-|-8/3-3-3/5-|-8-6--------8-6-----------|
 |-6/8-/3-3/6-|-6/1-1-1/3-|-----8-6-8~-----8-6-8-----|
 |------------|-----------|--------------------------|

CHORUS (1:29-1:54)
[C#] [Eb]  
 
 |-------|---|---|----|----X-X----|---|---|----|
 |-------|-6-|-8-|-10-|----X-X----|-6-|-8-|-10-|
 |-------|-6-|-8-|-10-|----X-X----|-6-|-8-|-10-|
 |--=----|-6-|-8-|-10-|----X-X----|-6-|-8-|-10-|
 |-------|-4-|-6-|-8--|----X-X----|-4-|-6-|-8--|
 |-------|---|---|----|----X-X----|---|---|----|

Tryin to liiiiiiiiiive Tryin' to liiiiiiiive
BRIDGE (3:35-) (I don't know if the solo thingy is right)
F (figure patterns by urself)
[F]  
 
 |-----------|---------|---------|----------|
 |-----------|-8-----8-|-9-----9-|-10----10-|
 |-10--------|---8-----|--10-----|---11-----| x2
 |---10---10-|----10---|----10---|-----11---|
 |------11---|---------|---------|----------|
 |-----------|---------|---------|----------|

[F] [C#-F-C#-F-Eb] [C#]  
[F] [C#-F-C#-F-Eb] [C#]  
 
 |--|-----------| |------|
 |--|-----------| |--6---|
 |--|-----------| |--6---|
 |==|----==-----| x2 |--6---|
 |--|-----------| |--4---|
 |--|-----------| |------|

To LIIIIIVE
ORDER
Intro
Verse x4
Pre-Chorus
Pre-Chorus 2 x4
Chorus x4
Intro
Verse x4
Pre-Chorus
Pre-Chorus 2 x4
Chorus x4
Bridge
Chorus x4

Important: The song above is NOT stored on the Chordie server. The original song is hosted at www.guitaretab.com. Chordie works as a search engine and provides on-the-fly formatting. Chordie does not index songs against artists'/composers' will. To remove this song please click here.

Text color:
Chord color:
Chord grids: 
Font size:    
Page size: 

A# C C# D# Eb F
Rate #1 of 2 versions

Jango Player

Login - add to songbook

SHARE PAGE  




You need to log in to post comments