Guitar Tabs, Chords and Lyrics
Server problems seems to be fixed. Chordie has been experiencing problems with songs disappearing. These issues now seems to be fixed, but still verifying the fix. If you find anything strange, please email admin@chordie.com.


Rock 'n' Roll Singer  AC/DC

ROCK 'N' ROLL SINGER
As recorded by AC/DC
(From the 1975 Album HIGH VOLTAGE)
Words and Music by Agnus Young, Malcolm Young, and BonScott
Transcribed by Ibanez87
x 2 [B5]4 4 x x x 0 [A5]2 2 x x x 5 7[D] 7 7 x x 7 9[E] 9 9 x
B5/A E(type 2) E5 F#5
x 0 4 4 x x 0 7 9 9 9 x 0 2 2 x x x 2 4 4 x x x
E(type 3) D5
0 2 2 1 0 0 x x 0 2 3 x
Gtr I (E A D G B E) - 'Malcolm'
Gtr II (E A D G B E) - 'Angus'
Q=138
[B] [A] [B] [A] [E]  
[4/4] Gtr I
E H +Q E E q E E q S S
 
 |---------------|-------------0-0-|
 |---------------|-------------0-0-|
 |-4-4----(4)--4-|---2--4---2--1-1-|
 |-4-4----(4)--4-|---2--4---2--2-2-|
 |-2-2----(2)--2-|---0--2---0--2-2-|
 |---------------|-------------0-0-|

W +H. +E [B]E H. +E E
 
 |-0--------|-(0)------(0)---|---------------|
 |-0--------|-(0)------(0)---|---------------|
 |-1--------|-(1)------(1)-4-|-4-------(4)-4-|
 |-2--------|-(2)------(2)-4-|-4-------(4)-4-|
 |-2--------|-(2)------(2)-2-|-2-------(2)-2-|
 |-0--------|-(0)------(0)---|---------------|

E [A]q [B]E E [A]q [E]S S W +H. +E [B5]E
 
 |-------------0-0-|-0--------|-(0)------(0)----|
 |-------------0-0-|-0--------|-(0)------(0)----|
 |---2--4---2--1-1-|-1--------|-(1)------(1)-4--|
 |---2--4---2--2-2-|-2--------|-(2)------(2)-4--|
 |---0--2---0--2-2-|-2--------|-(2)------(2)-2--|
 |-------------0-0-|-0--------|-(0)------(0)----|

+E [B5B5]E q q E E +E [B5B5]E q q E E +E [B5B5]E q q E E
 
 |-----------------|-----------------|-----------------|
 |-----------------|-----------------|-----------------|
 |-(4)-4-4--4----4-|-(4)-4-4--4----4-|-(4)-4-4--4----4-|
 |-(4)-4-4--4--x-4-|-(4)-4-4--4--x-4-|-(4)-4-4--4--x-4-|
 |-(2)-0-2--2--x-2-|-(2)-0-2--2--x-2-|-(2)-0-2--2--x-2-|
 |-----------------|-----------------|-----------------|

+E [B5B5]E q q E E +E [B5B5]E q q E E +E [B5AA]E q q E [D]E
 
 |-------------------|------------------------|-----------------------|
 |-------------------|------------------------|--------------------7--|
 |-(4)-4-4--4------4-|-(4)-----4-4--4----4----|-(4)-4-2-----2------7--|
 |-(4)-4-4--4----x-4-|-(4)-----4-4--4--x-4----|-(4)-4-2-----2------7--|
 |-(2)-0-2--2----x-2-|-(2)-----0-2--2--x-2----|-(2)-0-0-----0------5--|
 |-------------------|------------------------|-----------------------|

|
| Gtr II
| PM| PM ~ PM----| ~
| H E E E E +Q q Q E E +E E S S E Q +E E
 
 |-------------------|------------------------|-----------------------|
 |-------------------|------------------------|-----------------------|
 |-----------------7-|-(7)b7.5-----------7b8==|=(7)-------------------|
 |---------------x---|-----------9--9---------|-----9-x-9---9--(9)----|
 |------------/9-----|------------------------|-----------------------|
 |-------------------|------------------------|-----------------------|

+Q E [E]E +Q E [B5]E +E [B5B5]E q q E E +E [B5B5]E q q E E
 
 |-------------------------|-------------------|---------------------|
 |-(7)----------9-(9)------|-------------------|---------------------|
 |-(7)----------9-(9)----4-|-(4)-4-4---4-----4-|-(4)-----4-4--4----4-|
 |-(7)----------9-(9)----4-|-(4)-4-4---4---x-4-|-(4)-----4-4--4--x-4-|
 |-(5)----------7-(7)----2-|-(2)-0-2---2---x-2-|-(2)-----0-2--2--x-2-|
 |-------------------------|-------------------|---------------------|

|
| ~~~ PM| PM| ~
| E E +E E Q E E Q E E q E E +Q q Q E E
 
 |-------------------------|-------------------|---------------------|
 |-------------------------|-----------4\----7-|---------------------|
 |-----7b8==(7)------------|-----------4\----7-|-(7)b7.5-----------7-|
 |--------------9--9---6---|--4\-------4\------|-----------9--9------|
 |-----------------------6-|-------6-6---------|---------------------|
 |-------------------------|-------------------|---------------------|

+E [A5B5]E q q E [D]E +Q E [E] E +Q E [B5]E
 
 |----------------------|------------------------------------------|
 |--------------------7-|--(7)------------9------(9)---------------|
 |-(4)-2-4--4---------7-|--(7)------------9------(9)-------------4-|
 |-(4)-2-4--4---------7-|--(7)------------9------(9)-------------4-|
 |-(2)-0-2--2---------5-|--(5)------------7------(7)-------------2-|
 |----------------------|------------------------------------------|

|
| PM| ~~~
| +E E Q E Q. +E E E a +E S S a +Q E
 
 |----------------------|------------------------------------------|
 |------------10b12-----|-(10)-10-7--------------------------------|
 |-(7)------------------|-----------9b11-(9)pb11r=9p7-9b11-(9)---7-|
 |-----9-9--------------|------------------------------------------|
 |----------------------|------------------------------------------|
 |----------------------|------------------------------------------|

+E [A5B5]E q q E E
 
 |----------------------------|
 |----------------------------|
 |-(4)-2-4---4----------4-----|
 |-(4)-2-4---4-------x--4-----|
 |-(2)-0-2---2-------x--2-----|
 |----------------------------|

|
|~~~~~
| +H +E S S E S S
 
 |----------------------------|
 |----------------------------|
 |-(7)------(7)---------------|
 |-------------------9-11s13--|
 |--------------9s11----------|
 |----------------------------|

[B5]Gtr I[A5] [B5] [A5B5] [D]
+E E q q E E +E E q q E E
| | | | | | | | | |
[/] [/] [/] [/] [/] [/] [/] [/] [/] [/] 
Gtr II
~~~~~~~~~~~ PM
+E E q q Q +Q E E E Q.
 
 |----------------------|---------------------------|
 |-------------12--15---|-(15)---14----12-----------|
 |------11-13-----------|-----------14----14b16-----|
 |-(13)-----------------|---------------------------|
 |----------------------|---------------------------|
 |----------------------|---------------------------|

+Q E [E]E +Q E [B5] E
| | | |
[/] [/] [/] [/]  
+E E Q +E E E E
 
 |--------------------------------|
 |------15--------------15-15-15p=|
 |-(14)----14b16---(14)-----------|
 |--------------------------------|
 |--------------------------------|
 |--------------------------------|

[B5]+E [A5B5]E q q E E
| | | | |
[/] [/] [/] [/] [/]  
~~~
H. a +Q
 
 |------------------------------|
 |-12----------14b15-(14)pb15r==|
 |------------------------------|
 |------------------------------|
 |------------------------------|
 |------------------------------|

+E [A5] E [B5] q q E E
| | | | |
[/] [/] [/] [/]~~~[/]
E E a +E +S S Q. a +E
 
 |----------------------------------------------------|
 |=14p12-14b15-(14)-(14)pb15r14p12-----14b16-(14)pb16r|
 |----------------------------------------------------|
 |----------------------------------------------------|
 |----------------------------------------------------|
 |----------------------------------------------------|

+E [A5]E [B5] q q E [D]S S
| | | | | |
[/] [/] [/] [/] [/] [/]  
Q a +E E E Q E
 
 |--------------------------------|
 |-14---14b15-(14)-12-12\---------|
 |--------------------------------|
 |--------------------------------|
 |--------------------------------|
 |--------------------------------|

[D]W +H. +E [E]S S W
| | | | | |
[/] [/] [/] [/] [/] [/] 
~~~~~~~
Q H +Q E a +E E E +Q. E H E E +Q
 
 |-----------------|-------------------------------|--------10b12-(10)pb12--|
 |-----------------|-10----------------------------|------------------------|
 |----9b11----(9)--|-----9b11-(9)-9-7-(7)\---------|------------------------|
 |-----------------|-------------------------------|------------------------|
 |-----------------|-------------------------------|------------------------|
 |-----------------|-------------------------------|------------------------|

[E]+H. E [B5] E +E [B5B5]E q q E E
| | | | | | | |
[/] [/] [/] [/] [/] [/] [/] [/] 
~~~~~~~~~
 
 |-3--| |----------3----------|

q q q Q E E +Q E +E Q a +Q a +Q
 
 |-11--7-7-7\-------|--------10-(10)b10.5---10-(10)b10.5---10-(10)b10.5---|
 |---------------12-|-(12)------------------------------------------------|
 |------------------|-----------------------------------------------------|
 |------------------|-----------------------------------------------------|
 |------------------|-----------------------------------------------------|
 |------------------|-----------------------------------------------------|

+E [B5B5]E q q E E
| | | | |
[/] [/] [/] [/] [/] 
~~
 
 |----------3----------|

Q E +E Q a +Q a +Q
 
 |------10-(10)b10.5---10-(10)b10.5---10-(10)b10.5----|
 |-12-------------------------------------------------|
 |----------------------------------------------------|
 |----------------------------------------------------|
 |----------------------------------------------------|
 |----------------------------------------------------|

[B5]+E [B5B5]E q q E E +E [B5B5]E q q E E
| | | | | | | | | |
[/] [/] [/] [/] [/] [/] [/] [/] [/] [/] 
~~
 
 |------3-------|

Q E +E Q Q a +Q a +H. +Q
 
 |------10-(10)b10.5---12---12b14-(12)---|-12b14-(12)---------(12)\---||
 |-12------------------------------------|----------------------------||
 |---------------------------------------|----------------------------||
 |---------------------------------------|----------------------------||
 |---------------------------------------|----------------------------||
 |---------------------------------------|----------------------------||

verse
$
[B5]+E [B5B5]E q q E E +E [B5B5]E q q E [D]E +Q E [E]E +Q E [B5]E
| | | | | | | | | | | | | |
[/] [/] [/] [/] [/] [/] [/] [/] [/] [/] [/] [/] [/] [/] 
E E q q E E +E E q q E E +Q E E +Q E E
 
 |----------------|-----------------|-------------------|
 |----------------|---------------7-|-(7)----9-(9)------|
 |----4-4--4----4-|-(4)-4-4--4----7-|-(7)----9-(9)----4-|
 |----4-4--4--x-4-|-(4)-4-4--4----7-|-(7)----9-(9)----4-|
 |----0-2--2--x-2-|-(2)-0-2--2----5-|-(5)----7-(7)----2-|
 |----------------|-----------------|-------------------|

[B5]+E [B5B5]E q q E E +E [B5B5]E q q E E +E [B5B5]E q q E [D]E
| | | | | | | | | | | | | | |
[/] [/] [/] [/] [/] [/] [/] [/] [/] [/] [/] [/] [/] [/] [/] 
+E E q q E E +E E q q E E +E E q Q E E
 
 |-----------------|-----------------|-----------------|
 |-----------------|-----------------|---------------7-|
 |-(4)-4-4--4----4-|-(4)-4-4--4----4-|-(4)-4-4--4----7-|
 |-(4)-4-4--4--x-4-|-(4)-4-4--4--x-4-|-(4)-4-4--4----7-|
 |-(2)-0-2--2--x-2-|-(2)-0-2--2--x-2-|-(2)-0-2--2----5-|
 |-----------------|-----------------|-----------------|

+Q E [E]E +Q E [B5]E +E [B5B5]E q q E E +E [B5B5]E q q E E
| | | | | | | | | | | | | |
[/] [/] [/] [/] [/] [/] [/] [/] [/] [/] [/] [/] [/] [/] 
+q E E +Q E E +E E q q E E +E E q q E E
 
 |-------------------|-----------------|-----------------|
 |-(7)----9-(9)------|-----------------|-----------------|
 |-(7)----9-(9)----4-|-(4)-4-4--4----4-|-(4)-4-4--4----4-|
 |-(7)----9-(9)----4-|-(4)-4-4--4--x-4-|-(4)-4-4--4--x-4-|
 |-(5)----7-(7)----2-|-(2)-0-2--2--x-2-|-(2)-0-2--2--x-2-|
 |-------------------|-----------------|-----------------|

+E [B5B5]E q q E [D]E +Q E [E]E +Q E [B5]E +E [B5B5]E q q E E
| | | | | | | | | | | | | |
[/] [/] [/] [/] [/] [/] [/] [/] [/] [/] [/] [/] [/] [/] 
+E E q q E E +Q E E +Q E E +E E q q E E
 
 |-----------------|-------------------|-----------------|
 |---------------7-|-(7)----9-(9)------|-----------------|
 |-(4)-4-4--4----7-|-(7)----9-(9)----4-|-(4)-4-4--4----4-|
 |-(4)-4-4--4----7-|-(7)----9-(9)----4-|-(4)-4-4--4--x-4-|
 |-(2)-0-2--2----5-|-(5)----7-(7)----2-|-(2)-0-2--2--x-2-|
 |-----------------|-------------------|-----------------|

+E [B5B5]E q q E E +E [B5B5]E q q E [E]E +H. +E [B5]E
| | | | | | | | | | | | | |
/ / / / / / / / / x / / / /
+E E q q E E +E E q q E E H. +E E
 
 |-----------------|-----------------|----------------|
 |-----------------|---------------9-|--9-------(9)---|
 |-(4)-4-4--4----4-|-(4)-4-4--4--x-9-|--9-------(9)-4-|
 |-(4)-4-4--4--x-4-|-(4)-4-4--4--x-9-|--9-------(9)-4-|
 |-(2)-0-2--2--x-2-|-(2)-0-2--2--x-7-|--7-------(7)-2-|
 |-----------------|-----------------|----------------|

B5 E(type 2)
+H. +E E W +W
| | | | |
[/] [/] [/] [/] [/]  
+H. +E E W +W
 
 |----------------|----------|--------||
 |--------------9-|-9--------|-(9)----||
 |-(4)------(4)-9-|-9--------|-(9)----||
 |-(4)------(4)-9-|-9--------|-(9)----||
 |-(2)------(2)-7-|-7--------|-(7)----||
 |--------------0-|-0--------|-(0)----||

chorus
[B5]Gtrs [A5]I, II[E] [D5] [B5] [A5] [E]
H Q. E +Q. E +E E Q H Q. E
 
 |-----------0-|-(0)--------------|-----------0-|
 |-----------0-|-(0)---3-(3)-3-3--|-----------0-|
 |-4----2----1-|-(1)---2-(2)-2-2--|-4----2----1-|
 |-4----2----2-|-(2)---0-(0)-0-0--|-4----2----2-|
 |-2----0----2-|-(2)--------------|-2----0----2-|
 |-----------0-|-(0)--------------|-----------0-|

+Q. [D5]E +E E Q [B5]H [A5]Q. [E]E +Q. [D5]E +Q [A5]Q
 
 |-(0)--------------|-----------0-|-(0)-------------|
 |-(0)---3-(3)-3-3--|-----------0-|-(0)---3-(3)-----|
 |-(1)---2-(2)-2-2--|-4----2----1-|-(1)---2-(2)--2--|
 |-(2)---0-(0)-0-0--|-4----2----2-|-(2)---0-(0)--2--|
 |-(2)--------------|-2----0----2-|-(2)----------0--|
 |-(0)--------------|-----------0-|-(0)-------------|

To Coda
[B5]H [A5]Q. [E]E +Q Q E Q E Q E E +E E E E
 
 |-----------0-|-(0)--0----0----|-0----0-(0)-0-----|
 |-----------0-|-(0)--0----0----|-0----0-(0)-0-----|
 |-4----2----1-|-(1)--1----1----|-1----1-(1)-1---4-|
 |-4----2----2-|-(2)--2----2----|-2----2-(2)-2---4-|
 |-2----0----2-|-(2)--2----2----|-2----2-(2)-2---2-|
 |-----------0-|-(0)--0--0-0--0-|-0--0-0-(0)-0-----|

Gtr [B5B5]I[B5/A] [B5]
+E E q q E E +E E q q E E
 
 |----------------------------|------------------------------|
 |----------------------------|------------------------------|
 |-(4)-4--4-----4--------4----|--(4)--4---------4----4-----4-|
 |-(4)-4--4-----4----x---4----|--(4)--4---------4----4---x-4-|
 |-(2)-0--2-----2----x---2----|--(2)--0---------2----2---x-2-|
 |----------------------------|------------------------------|

|
| Gtr II
| ~~~
| Q H +E E +E E a +q Q Q
 
 |----------------------------|------------------------------|
 |-------15b17-----(15)-15b16-|-(15)-12-15b16-(15)--12\------|
 |----------------------------|------------------------------|
 |----------------------------|------------------------------|
 |----------------------------|------------------------------|
 |----------------------------|------------------------------|

D.S. al Coda
+E [B5/A] E [B5]q q E E +E [B5B5]E q q E E
 
 |-------------------------------------|---------------------------||
 |-------------------------------------|---------------------------||
 |-(4)--4----4----4-----------------4--|--(4)-4-4----4----------4--||
 |-(4)--4----4----4------------x----4--|--(4)-4-4----4--------x-4--||
 |-(2)--0----2----2------------x----2--|--(2)-0-2----2--------x-2--||
 |-------------------------------------|---------------------------||

|
| ~~~~~~~~~~~~~~~~~~~~
| E Q. +E E a +E +E +H +E +Q.
 
 |--------------------17---------------|---------------------------||
 |-----17b19----(17)-(17)-17-(17)-(17)-|-(17)------(17)-(17)\------||
 |-------------------------------------|---------------------------||
 |-------------------------------------|---------------------------||
 |-------------------------------------|---------------------------||
 |-------------------------------------|---------------------------||

&
[E]Gtrs I, II[B5] [B5/B5] [B5/A]
Q Q E Q E H. E E E Q E E Q E
 
 |-0--0----0----|-------------|---------------|
 |-0--0----0----|-------------|---------------|
 |-1--1----1--4-|-4---------4-|---4--4---4----|
 |-2--2----2--4-|-4-------x-4-|---4--4---4----|
 |-2--2----2--2-|-2-------x-2-|---0--2---0----|
 |-0--0--0-0----|-------------|-------------0-|

solo
[E]W +H. +E [B5]E +E [B5/AB5]E q q E E
 
 |-0--------|-(0)-------(0)-----||-------------------------|
 |-0--------|-(0)-------(0)-----||-------------------------|
 |-1--------|-(1)-------(1)---4-||-(4)-4---4-----4-----4---|
 |-2--------|-(2)-------(2)---4-||-(4)-4---4-----4---x-4---|
 |-2--------|-(2)-------(2)---2-||-(2)-0---2-----2---x-2---|
 |-0--------|-(0)-------(0)-----||-------------------------|

|
| Gtr II
| W H Q E a E +E E a E E a E E E S S
 
 |----------|-------------------||-------------------------|
 |----------|-------------------||-------------------------|
 |----------|-------------------||-----------------4-4-----|
 |----------|-------------------||-----------2-4s6-----4h6-|
 |----------|-------------------||-----2-2s4---------------|
 |----------|---------------2s4-||-(4)---------------------|

Gtr[B5B5] I[D] [E] [B5] [B5B5]
+E E q q E E +Q E E +Q E E +E E q q E E
| | | | | | | | | | | | | |
[/] [/] [/] [/] [/] [/] [/] [/] [/] [/] [/] [/] [/] [/] 
Gtr II
~~~~~~ ~
Q H +e E a +Q E E +Q E E +Q Q E a +Q.
 
 |--------------------|--------------------------|----------------------------|
 |------------------7-|--------------------------|-------------10b12-(10)-----|
 |--4---7b8-----(7)---|-6b7-(6)pb7r=6s4-(4)----4-|-(4)\-----------------------|
 |--------------------|----------------------6---|----------------------------|
 |--------------------|--------------------------|----------------------------|
 |--------------------|--------------------------|----------------------------|

+E [B5B5]E q q E E
| | | | |
[/] [/] [/] [/] [/]  
~~~~
+Q S S S S S S S S S S E
 
 |--------7----------------------|
 |-(10)-----10-7---7-------------|
 |---------------9---9-7---9---7-|
 |-----------------------9---9---|
 |-------------------------------|
 |-------------------------------|

+E [A5] E [B5]q q E [D]E +Q E [E]E +Q E [B5]E
| | | | | | | | |
[/] [/] [/] [/] [/] [/] [/] [/] [/] 
~~~~~~
+E +E E E +Q a E E a E E q q Q
 
 |----------------------------|--------------7----------|
 |----------------------------|-------7-9-------15b16---|
 |-(7)-(7)b7.5--------------4-|-6s(8)-------------------|
 |-------------9-9-(9)--4s6---|-------------------------|
 |----------------------------|-------------------------|
 |----------------------------|-------------------------|

[B5] +E [A5] E [B5] q q E E
| | | | |
[/] [/] [/] [/] [/] 
+E E Q +E E a +E +S S
 
 |------14-------------14-----------------------|
 |-(15)----15b16--(15)----15b17-(15)-(15)b16r15-|
 |----------------------------------------------|
 |----------------------------------------------|
 |----------------------------------------------|
 |----------------------------------------------|

+E [B5/B5] E q q E E
| | | | |
[/] [/] [/] [/] [/]  
+S S E E E Q Q
 
 |---------------------------------|
 |-(15)b16r15-12-14----12--19------|
 |------------------13-----18b20---|
 |---------------------------------|
 |---------------------------------|
 |---------------------------------|

+E [B5/B5] E q q E [D]E
| | | | |
[/] [/] [/] [/] [/] 
~~~~~~~~
+S S E E E E a +Q.
 
 |----------------------------------------|
 |----------------------------------------|
 |-(18)pb20r18p16-18----16-14b16-(14)-----|
 |-------------------18-------------------|
 |----------------------------------------|
 |----------------------------------------|

+Q E [E]E +Q E [B5]E E [B5B5]E q q E E
| | | | | | | | |
[/] [/] [/] [/] [/] [/] [/] [/] [/] 
~~~~~~
 
 |---3----|

+E Q. +Q q q Q Q E a E +E E
 
 |-------------------------------|----------------------------|
 |------15b17-----(15)-15---14---|-12\--------x-15b16-(15)-12-|
 |-(14)--------------------------|----------------------------|
 |-------------------------------|----------------------------|
 |-------------------------------|----------------------------|
 |-------------------------------|----------------------------|

+E [B5/B5] E q q E E +E [B5/B5] E q q E [D] S S
| | | | | | | | | | |
[/] [/] [/] [/] [/] [/] [/] [/] [/] [/] [/] 
~~ ~~~~~~~~~
E E E E +E E E E +E E E E +Q E E
 
 |----14-----------------14-------|------14------------------------|
 |-12----15b15.5-12-(12)----15-12-|-(12)----15-12-(12)\----17b19---|
 |--------------------------------|--------------------------------|
 |--------------------------------|--------------------------------|
 |--------------------------------|--------------------------------|
 |--------------------------------|--------------------------------|

W
|
[/]  
+Q E E E S +S E E
 
 |------------------------------------|
 |-(17)----15-17-17b19-(17)pb19r17p15-|
 |------------------------------------|
 |------------------------------------|
 |------------------------------------|
 |------------------------------------|

+H. +E [E]S S
| | | |
[/] [/] [/] [/] 
~~~~~~~~
a +E E E a +E +Q +Q
 
 |------------17-------------------------------|
 |-17b19-(17)----17-17b19-(17)-(17)--(17)\-----|
 |---------------------------------------------|
 |---------------------------------------------|
 |---------------------------------------------|
 |---------------------------------------------|

W +H. +E [B5] E
| | | |
[/] [/] [/] [/] 
~~~~
E E +Q. +E E a +E +E E E a +E E Q a +E
 
 |---------------------19------------|------19------------------------17b19-(17)-|
 |---19b21-(19)---(19)----19b21-(19)-|-(19)----19-19b21-(19)-19\-----------------|
 |-----------------------------------|-------------------------------------------|
 |-----------------------------------|-------------------------------------------|
 |-----------------------------------|-------------------------------------------|
 |-----------------------------------|-------------------------------------------|

+E [B5B5]E q q E E +E [B5B5]E q q E E
| | | | | | | | | |
[/] [/] [/] [/] [/] [/] [/] [/] [/] [/] 
~~~~ ~~~~~~~~~~~~~~~~~~~~
+H. a +E +E +H +E +Q +E
 
 |-(17)---------(17)pb19r(17)pb19-(17)-|-(17)------(17)-(17)---(17)-|
 |-------------------------------------|----------------------------|
 |-------------------------------------|----------------------------|
 |-------------------------------------|----------------------------|
 |-------------------------------------|----------------------------|
 |-------------------------------------|----------------------------|

+E [B5B5]E q q E E
| | | | |
[/] [/] [/] [/] [/] 
~~~~~~~~ ~~~~
 
 |----3-----|

a +Q. +E +E E E a +Q
 
 |-(17)-(17)pb19-----(17)-(17)pb19r17p14-17b19-(17)---|
 |----------------------------------------------------|
 |----------------------------------------------------|
 |----------------------------------------------------|
 |----------------------------------------------------|
 |----------------------------------------------------|

[B5] E [B5B5]E q q [E5F#5]E E W +W
| | | | | | | |
[/] [/] [/] [/] [/] [/] [/] [/] 
~~~~
+H +Q Q a +W +W
 
 |-(17)------(17)\------||-------------------|---------|
 |----------------------||-17b19-(17)--------|-(17)----|
 |----------------------||-------------------|---------|
 |----------------------||-------------------|---------|
 |----------------------||-------------------|---------|
 |----------------------||-------------------|---------|

+W +H +Q Q W
 
 |-------------|------------------|------|
 |-(17)--------|-(17)----(17)-----|------|
 |-------------|------------------|------|
 |-------------|------------------|------|
 |-------------|------------------|------|
 |-------------|------------------|------|

[F#5]Gtr I
 
 PM--------------------------------------------------|

[E] [E] [E] [E] [E] [E] [E] [E] [E] [E] [E] [E] [E] [E] [E] [E] [E] [E] [E] [E] [E] [E] [E] [E]  
 
 |-----------------|-------------------|-----------------|
 |-----------------|-------------------|-----------------|
 |-----------------|-------------------|-----------------|
 |-4-4-4-4-4-4-4-4-|--4--4-4-4-4-4-4-4-|-4-4-4-4-4-4-4-4-|
 |-4-4-4-4-4-4-4-4-|--4--4-4-4-4-4-4-4-|-4-4-4-4-4-4-4-4-|
 |-2-2-2-2-2-2-2-2-|--2--2-2-2-2-2-2-2-|-2-2-2-2-2-2-2-2-|

|
| Gtr II
| W +W W
 
 |-----------------|-------------------|-----------------|
 |-----------------|-------------------|-----------------|
 |-----------------|-------------------|-----------------|
 |-4---------------|-(4)---------------|-4---------------|
 |-4---------------|-(4)---------------|-4---------------|
 |-2---------------|-(2)---------------|-2---------------|

[E]  
 
 PM---------------|

[E] [E] [E] [E] [E] [E] [E] [E] [E] [E] [E] [E] [E] [E] [E] [E] [E] [E] [E] [E] [E] [E] [E] [E]  
 
 |---------------------|--------------------|------------------0-|
 |---------------------|--------------------|------------------0-|
 |---------------------|--------------------|------------------1-|
 |--4--4-4-4-4-4--4--4-|-4--4-4-4-4-4--4--4-|-4--4-4-4-4-4--4--2-|
 |--4--4-4-4-4-4--4--4-|-4--4-4-4-4-4--4--4-|-4--4-4-4-4-4--4--2-|
 |--2--2-2-2-2-2--2--2-|-2--2-2-2-2-2--2--2-|-2--2-2-2-2-2--2--0-|

|
| +H. +E E H. +E E H. +E E
 
 |---------------------|--------------------|--------------------|
 |---------------------|--------------------|--------------------|
 |---------------------|--------------------|-3------------(3)---|
 |-(4)-----------(4)-4-|-4------------(4)-4-|-4------------(4)-2-|
 |-(4)-----------(4)-4-|-4------------(4)-4-|-4------------(4)-2-|
 |-(2)-----------(2)-2-|-2------------(2)-2-|-2------------(2)-0-|

E(type 3) E(tyEe 2)
Gtr I
H. +E E +H. +E E W
| | | | | | |
[/] [/] [/] [/] [/] [/] [/]  
Gtr II
H. +E E +H. +E E W
 
 |-0-------(0)---|----------------|------|
 |-0-------(0)---|--------------9-|-9----|
 |-1-------(1)-4-|-(4)------(4)-9-|-9----|
 |-2-------(2)-4-|-(4)------(4)-9-|-9----|
 |-2-------(2)-2-|-(2)------(2)-7-|-7----|
 |-0-------(0)---|--------------0-|------|

E B5 A5 E(type 3)
+W +H. +E E +Q. E Q. E
| | | | | | | |
[/] [/] [/] [/] [/] [/] [/] [/] 
+W +H. +E E +Q. E Q. E
 
 |------------|----------------|--------------0-|
 |-(9)--------|-(9)------(9)---|--------------0-|
 |-(9)--------|-(9)------(9)-4-|-(4)---2-2----1-|
 |-(9)--------|-(9)------(9)-4-|-(4)---2-2----2-|
 |-(7)--------|-(7)------(7)-2-|-(2)---0-0----2-|
 |------------|----------------|--------------0-|

D5 B5 A5 E(type
+Q. E +H H Q. E
| | | | | |
[/] [/] [/] [/] [/] [/] 
PM ~~~~~~~
H Q S S E S E. +H.
 
 |-------------10p7---|-10p7--(7)---------|
 |------------------7-|-------------------|
 |--------------------|-------------------|
 |--------------------|-------------------|
 |--------------------|-------------------|
 |--------------------|-------------------|

+Q.[3)] [D5]E +H
| | |
[/] [/] [/]  
 
 |---------3---------|

H Q a +Q a +Q
 
 |--------------------------------------|
 |------------15-(15)b15.5-15-(15)b15.5-|
 |--------------------------------------|
 |--------------------------------------|
 |--------------------------------------|
 |--------------------------------------|

B5 A5 E5 D5 B5 A5 E(type 3)
H Q. E +Q. E +H H Q. E
| | | | | | | | |
[/] [/] [/] [/] [/] [/] [/] [/] [/] 
~~ ~~~~
W H E Q. +S S E a +Q +H
 
 |--------------|--------------------|--------------------------------------|
 |--------------|------------17b19---|-(17)pb19r17p15-17b19-(17)--(17)\-----|
 |-16-----------|--------------------|--------------------------------------|
 |--------------|--------------------|--------------------------------------|
 |--------------|--------------------|--------------------------------------|
 |--------------|--------------------|--------------------------------------|

B5 A5 E(type 3)
+E E Q E Q E Q E E E E Q H Q. E
| | | | | | | | | | | | | | |
[/] [/] [/] [/] [/] [/] [/] [/] [/] [/] [/] [/] [/] [/] [/] 
~~~~
W E a +Q. +E E E a +E +W
 
 |----------------|---17b19-(17)-----(17)pb19r17p14-17b19-(17)-|-(17)-----------|
 |----------------|--------------------------------------------|----------------|
 |----------------|--------------------------------------------|----------------|
 |----------------|--------------------------------------------|----------------|
 |----------------|--------------------------------------------|----------------|
 |----------------|--------------------------------------------|----------------|

D5 B5 A5 E(type 3) D5
+Q. E +E E Q H Q. E +Q. E +E E Q
| | | | | | | | | | | | |
[/] [/] [/] [/] [/] [/] [/] [/] [/] [/] [/] [/] [/] 
H a +E E a +E E +W H Q E E
 
 |--------------------19---------------|-----------------|-----------------19-|
 |---------17b19-(17)----17b19-(17)-15-|-(15)\-----------|--------------19----|
 |-------------------------------------|-----------------|--------------------|
 |-------------------------------------|-----------------|--------------------|
 |-------------------------------------|-----------------|--------------------|
 |-------------------------------------|-----------------|--------------------|

B5 A5 E(type 3) D5 A5
H Q. E +Q. E +Q Q
| | | | | | |
[/] [/] [/] [/] [/] [/] [/] 
~~~~
a +W H Q a +E E
 
 |----------------------|---------------------------|
 |-22b24-(22)-----------|-------------14b15-(14)-12-|
 |----------------------|---------------------------|
 |----------------------|---------------------------|
 |----------------------|---------------------------|
 |----------------------|---------------------------|

B5 A5 E(type 3)
H Q. E
| | |
[/] [/] [/]  
~~~~~~~
a +Q E E +H
 
 |----------------------------|
 |-14b15-(14)--14-12-(12)-----|
 |----------------------------|
 |----------------------------|
 |----------------------------|
 |----------------------------|

+Q Q E Q E
| | | | |
[/] [/] [/] [/] [/] 
~~~~
+Q a +Q +E E E +E
 
 |------------------------14----------------|
 |-(12)--15b17-(15)--(15)----14b15-(14)pb15r|
 |------------------------------------------|
 |------------------------------------------|
 |------------------------------------------|
 |------------------------------------------|

Q E E +E E Q [B5] H. +E E
| | | | | | | | |
[/] [/] [/] [/] [/] [/] [/] [/] [/] 
~~~
E E a +E e a +Q Q W
 
 |------------------14----------------------|---------------|
 |-14p12-14b15-(14)----14b15-(14)pb15r==14--|-12------------|
 |------------------------------------------|---------------|
 |------------------------------------------|---------------|
 |------------------------------------------|---------------|
 |------------------------------------------|---------------|

A5 B5 A5 E(type 3) B5
E q E E q E W +W H. +E E
| | | | | | | | |
[/] [/] [/] [/] [/] [/] [/] [/] [/] 
~~~~
+W W W a +W
 
 |------------------|----------|-----------|-----------------------|
 |-(12)-------------|----------|-----------|-10b12-(10)------------|
 |------------------|----------|-----------|-----------------------|
 |------------------|----------|-----------|-----------------------|
 |------------------|----------|-----------|-----------------------|
 |------------------|----------|-----------|-----------------------|

A5 B5 A5 E(type 3)
E Q E E Q E W
| | | | |
[/] [/] [/] [/] [/]  
~~~~
 
 |-3--| |---3---|

+W a +H E E E a +S S a S S S
 
 |------------------|---------------7--------------------------------:
 |-(10)-------------|-10b12-(10)------10p7----------7----------------:
 |------------------|----------------------9b11-(9)---9b11-9pb11r9p7-:
 |------------------|------------------------------------------------:
 |------------------|------------------------------------------------:
 |------------------|------------------------------------------------:

+W
|
[/]  
 
 |---5---| |---3----|

S S S S S a +E E E E E S S S S
 
 |-----------------------------------------:
 |---------------------------------7-------:
 |----9---7-9-9b11-(9)pb11r9p7-9-9---9p7---:
 |--9---9--------------------------------9-:
 |-----------------------------------------:
 |-----------------------------------------:

+W +W +W
| | |
[/] [/] [/] 
~~~
S S S S S S S S S S E +E E q q a Q E +E W
 
 |--------------------------------:-----------------------:--------*|
 |--------------------------------:-----------------------:--------*|
 |--9---7-9p7---------------------:-------------7-(7)b7.5-:--------*|
 |----9-------9-7---9---7-(7)\----:--9--7-----------------:--9\----*|
 |----------------9---9--------/6-:--------7s9------------:--------*|
 |--------------------------------:-----------------------:--------*|

Duration Legend
 
 ---------------
 W - whole; H - half; Q - quarter; E - 8th; S - 16th; T - 32nd; X - 64th; a - acciaccatura

+ - note tied to previous; . - note dotted; .. - note double dotted
Uncapitalized letters represent notes that are staccato (1/2 duration)
Irregular groupings are notated above the duration line
Duration letters will always appear directly above the note/fret number it represents the
duration for. Duration letters with no fret number below them represent rests. Multi-
bar rests are notated in the form Wxn, where n is the number of bars to rest for. Low
melody durations appear below the staff
Tablature Legend
 
 ----------------

h - hammer-on
p - pull-off
b - bend
pb - pre-bend
r - bend release (if no number after the r, then release immediately)
/\ - slide into or out of (from/to "nowhere")
s - legato slide
S - shift slide
- natural harmonic
(n) - artificial harmonic
n(n) - tapped harmonic
~ - vibrato
tr - trill
T - tap
TP - trem. picking
PM - palm muting
\n/ - tremolo bar dip; n = amount to dip
\n - tremolo bar down
n/ - tremolo bar up
/n\ - tremolo bar inverted dip
= - hold bend; also acts as connecting device for hammers/pulls
- volume swell (louder/softer)
x - on rhythm slash represents muted slash
o - on rhythm slash represents single note slash
Misc Legend
 
 -----------

| - bar
|| - double bar
||o - repeat start
o|| - repeat end
*| - double bar (ending)
: - bar (freetime)
$ - Segno
& - Coda
Tempo markers - = BPM(8/16=s8/s16), where s8 = swing 8ths, s16 = swing 16ths
Generated using Power Tab Editor by Brad Larsen - http://powertab.guitarnetwork.org
My third tab. look for more Ibanez87 tabs.

Important: The song above is NOT stored on the Chordie server. The original song is hosted at www.guitaretab.com. Chordie works as a search engine and provides on-the-fly formatting. Chordie does not index songs against artists'/composers' will. To remove this song please click here.

Text color:
Chord color:
Chord grids: 
Font size:    
Page size: 

A A5 B B5 B5/A D D5 E F#5
Rate #1 of 2 versions

Login - add to songbook

SHARE PAGE  



You need to log in to post comments