Guitar Tabs, Chords and Lyrics
Major upgrade!! After one year development the new version of Chordie is now online! Please give feedback.


The Jack  AC/DC

The Jack tab by AC/DC (scott/young/young) High Voltage (1976)
b=bend
r=release
~~~=vibrato (finger)
tr=trill
Intro:
[B] [A] [B] [A] [B] [A] [E]  
 
 e|----------|----------|----------|----------|----------|----------|----------|
 b|----------|----------|----------|----------|----------|----------|----------|
 g|-----1-2--|----------|-----1-2--|----------|-----1-2--|----------|----------|
 D|-4-4-x-x--|-2-2-4-5--|-4-4-x-x--|-2-2-4-5--|-4-4-x-x--|-2-2-4-5--|----------|
 A|-2-2-2-2--|-0-0-0-0--|-2-2-2-2--|-0-0-0-0--|-2-2-2-2--|-0-0-0-0--|-2-2-4-5--|
 E|----------|----------|----------|----------|----------|----------|-0-0-0-0--|
 e|----------|-----------------|
 b|----------|-----------------|
 g|----------|-----------------|
 D|-2-3-4----|-4-4-4-4-4-4-4/--|
 A|-0-1-2----|-2-2-2-2-2-2-2/--|
 E|----------|-----------------|

Figures:
E-Pattern A-Pattern
 
 e|-----------| e|-----------|
 b|-----------| b|--------3--| Verse: 4 x E-Pattern
 g|-----------| g|--------4--| 4 x A-Pattern
 D|-----------| D|--2-2-4-5--| 4 x E-Pattern
 A|-2-2-4-5---| A|--0-0-0-0--| 4 x A-Pattern
 E|-0-0-0-0---| E|-----------|

Chorus:
[E]  
 
 e|-------------------------------|-------------------------------|
 b|-------------------------------|-------------------------------|
 g|-------------------------------|-------------------------------|
 D|-------------------------------|-------------------------------|
 A|-2---2---4---4---5---5---4---4-|-2---2---4---4---5---5---4---4-|
 E|-0---0---0---0---0---0---0---0-|-0---0---0---0---0---0---0---0-|

[E]  
 
 e|-------------------------------|-------------------------------|
 b|-------------------------------|-------------------------------|
 g|-------------------------------|-------------------------------|
 D|-------------------------------|-------------------------------|
 A|-2---2---4---4---5---5---4---4-|-2---2---4---4---5---5---4---4-|
 E|-0---0---0---0---0---0---0---0-|-0---0---0---0---0---0---0---0-|

[A]  
 
 e|-------------------------------|-------------------------------|
 b|-------------------------------|-------------------------------|
 g|-------------------------------|-------------------------------|
 D|-2---2---4---4---2---2---4---4-|-2---2---4---4---2---2---4---4-|
 A|-0---0---0---0---0---0---0---0-|-0---0---0---0---0---0---0---0-|
 E|-------------------------------|-------------------------------|

[E]  
 
 e|-------------------------------|-------------------------------|
 b|-------------------------------|-------------------------------|
 g|-------------------------------|-------------------------------|
 D|-------------------------------|-------------------------------|
 A|-2---2---4---4---5---5---4---4-|-2---2---4---4---5---5---4---4-|
 E|-0---0---0---0---0---0---0---0-|-0---0---0---0---0---0---0---0-|

B A third time go to (*)
 
 e|-------------------------------|-------------------------------|
 b|-------------------------------|-------------------------------|
 g|------4-4-4-4-4-4-4-4-4-4-4-4--|-2-2-2-2-2-2-2-2-2-2-2-2-------|
 D|------4-4-4-4-4-4-4-4-4-4-4-4--|-2-2-2-2-2-2-2-2-2-2-2-2-------|
 A|------2-2-2-2-2-2-2-2-2-2-2-2--|-0-0-0-0-0-0-0-0-0-0-0-0-------|
 E|-------------------------------|-------------------------------|

[E] [B]  
 
 e|-------------------------------|-------------------------------|
 b|-------------------------------|-------------------------------|
 g|-------------------------------|-------------------------------|
 D|-------------------------------|-----------------2---3---4-----|
 A|-2---2---4---4---5---5---4---4-|-2---2---2---2---0---1---2-----|
 E|-0---0---0---0---0---0---0---0-|-0---0---0---0---0---0---0-----|

(*) ritard b b r play Chorus 3 x take (*) third time
(F) (E) (x)=Tremolo picking
 
 e|-----------0---3-(4)-0-----------------------------0------------------------|
 b|------0--3---0---------3--0------------------------0----------------------9\|
 g|----------------------------2-4-2-0-2-0-------2----1----------------------9\|
 D|-----------------------------------------2----3----2----------------------9\|
 A|----------------------------------------------3----2----------------------7\|
 E|-0-----------------------------------------0--1----0----------------------0\|

Solo: played over verse...see patterns!
[E] b b r ~~~~ b b b
 
 e|----------------------------------------------------------------------------|
 b|----------------------------------------------------------------------12----|
 g|--------9--11-(13)----------11-13-11-9---------9--11-13---11-12----13-------|
 D|-9--11---------------9--11---------------9--11------------------------------|
 A|----------------------------------------------------------------------------|
 E|----------------------------------------------------------------------------|

r b r b [B]bend b
 
 e|----------------------------------------------------------------------------|
 b|-------------------------------12---15--------------------------------------|
 g|-13--12--13--11-9-\----14-16-----------14-16-14-12-14-14-16-14-12----14---12|
 D|------------------------------------------------------------------14----14--\
 A|----------------------------------------------------------------------------|
 E|----------------------------------------------------------------------------|

b b b b b b tr b ~~~~~~~
 
 e|----------------------------------------------------------------------------|
 b|-------------------------------3-0-------------------------10-12--8---------|
 g|-2-4-----2-4-2-4-2-4-2-4---2-0-----2-0-----0------------------------9-------|
 D|---------------------------------------2-0---0---2-----0--------------------|
 A|----------------------------------------------------------------------------|
 E|----------------------------------------------------------------------------|

b r b r b b
 
 e|-------12----------------------------------------------15-17-15-17-15-12-14-|
 b|-12-15----12--15--17--17---17-15-12-14-15------14--12-----------------------|
 g|----------------------------------------------------------------------------|
 D|----------------------------------------------------------------------------|
 A|----------------------------------------------------------------------------|
 E|----------------------------------------------------------------------------|

b~~~~ b
 
 e|15-17-15-14-12----12----------------------------------------------------12--|
 b|---------------15----15-12----12----------12-------------------------12-----|
 g|---------------------------14----14-14-16----15-12-14-12----12-14-16--------|
 D|---------------------------------------------------------14-----------------|
 A|----------------------------------------------------------------------------|
 E|----------------------------------------------------------------------------|

~~~~~~ ~~~~~ b b
 
 e|----------------------------------------------------|
 b|15-12-------------------------------------15----15--|
 g|------15-14-12----14----12\------9\----14-16-14-16--|
 D|---------------14----14----\-------\----------------|
 A|----------------------------------------------------|
 E|----------------------------------------------------|

Lyrics
The Jack Ac/dc
She gave me the Queen
She gave me the King
She was wheelin' and dealin'
Just doin' her thing
She was holdin' a pair
But I had to try
Her Deuce was wild
But my Ace was high
But how was I to know
That she'd been dealt with before
Said she'd never had a Full House
But I should have known
>From the tattoo on her left leg
And the garter on her right
She'd have the card to bring me down
If she played it right
She's got the Jack
Poker face was her name
Poker face was her nature
Poker straight was her game
If she knew she could get you
She play'd 'em fast
And she play'd 'em hard
She could close her eyes
And feel every card
But how was I to know
That she'd been shuffled before
Said she'd never had a Royal Flush
But I should have known
That all the cards were comin'
>From the bottom of the pack
And if I'd known what she was dealin' out
I'd have dealt it back
She's got the Jack
===
Alternative Lyrics:
The Jack (live)
Here's a song of the record High Voltage
This one is a song about the clap
Now we call it `She's got the Jack'
We'd like to give this one to you
Psssst
Gonorrhea, oh no, I just had my first dose
Of gonorrhea
She gave me her mind
Then she gave me her body
But it seems to me
That she gave it to anybody
But I made her cry
And I made her scream (scream for me)
[Audience screams] 
I took her high
And I curdled her cream
But how was I to know that she had been there before
She told me she was a virgin
She was number nine, ninety-nine on the clinical list
And I fell in love with the dirty little bitch
She's got the Jack
(I hate to tell you this darling)
I searched her mind
And then I searched her body
...But so did everybody
But she gave me her heart
And she gave me her soul
And a great, big - warn out
Empty hole
But how was I to know it had been filled in before
She said, "Bon, I've never had the urgency"
She was number nine, ninety-nine on the critical list
And I fell in love with the dirty little bitch
She's got the Jack
(I'll kill her)
(Oh and it hurts)
You know, I woke up one morning, and there it was on the sheets - the clap
Now I know you all call it the clap over here so what I'm gonna do
I'm gonna say "She's got the --", and I want you all to shout out
Just what it is she's got, in this case it's the clap
And if you wanna know who gave it to her, don't look at me
She's got the ...
(I wanna hear your voices)
She's got the ... [clap]
She's got the ... [clap]
She's got the ... [clap]
(That guy down there, whatta you doing?)
She's got the ... [clap]
(Yeah, you show me)
She's got the ... [clap]
She's got the ... [clap]
(She got that too, ha?)
She's got the ... [clap]
(I think what she needs ... is an Angus Young penicilian)
Angus Young
Alright
She's got the Jack
Oh yes she has

Important: The song above is NOT stored on the Chordie server. The original song is hosted at www.guitaretab.com. Chordie works as a search engine and provides on-the-fly formatting. Chordie does not index songs against artists'/composers' will. To remove this song please click here.

Text color:
Chord color:
Chord grids: 
Font size:    
Page size: 

A B E
Rate #2 of 8 versions

Jango Player

Login - add to songbook

SHARE PAGE  



You need to log in to post comments