Guitar Tabs, Chords and Lyrics
Server problems seems to be fixed. Chordie has been experiencing problems with songs disappearing. These issues now seems to be fixed, but still verifying the fix. If you find anything strange, please email admin@chordie.com.


This House Is on Fire   AC/DC

 
 ---------------------------------------------------------------------------- 

 


 THIS HOUSE IS ON FIRE - AC/DC


 

 
 ----------------------------------------------------------------------------

 


 Tuning: E,A,D,G,B,E


 


 

 
 e|---------------|
 B|---------------|
 G|---------------| Angus
 D|---------------|
 A|---------------|
 E|---------------|

 


 |


 

 
 E|---------------|
 B|---------------|
 G|---------------| Malcolm
 D|---------------|
 A|---------------|
 E|---------------|

 


 


 Intro Riff


 


 

 
 e|------------------------------------|
 B|-----3--------3---------------------|
 G|-----------------------5---3-5------| (Angus only)
 D|-3/5------3/5------3/5---5----------|
 A|------------------------------------|
 E|------------------------------------|
 e|------------------------------------|
 B|-----3--------3---------------------|
 G|-----------------------5---3-5------|
 D|-3/5------3/5------3/5---5----------|
 A|------------------------------------|
 E|------------------------------------|

 


 |


 

 
 e|------------------------------------|
 B|-----3--------3---------------------|
 G|-----------------------5---3-5------|
 D|-3/5------3/5------3/5---5----------|
 A|------------------------------------|
 E|------------------------------------|

 


 


 Verse


 


 

 
 e|------------------------------------|
 B|-----3--------3---------------------|
 G|-----------------------5---3-5------|
 D|-3/5------3/5------3/5---5----------|
 A|------------------------------------|
 E|------------------------------------|

 


 | x8


 

 
 e|------------------------------------|
 B|-----3--------3---------------------|
 G|---0-0------0-0------0-5-0-3-5------|
 D|---0-0------0-0------0-5-0-3-5------|
 A|------------------------------------|
 E|------------------------------------|

 


 


 Pre-Chorus


 


 

 
 e|---------------3-------3-------|
 B|-3-------------3---3-3-3---3---|
 G|-2-----------2-2---2-2-2---2---|
 D|-0-----------0-----0-0-----0---|
 A|-------------------------------|
 E|-------------------------------|

 


 |


 

 
 e|---------------3---2-2-3---2---|
 B|-3-------------3---3-3-3---3---|
 G|-2-----------2-2---2-2-2---2---|
 D|-0-----------0-0---0-0-0---0---|
 A|-------------------------------|
 E|-------------------------------|
 e|-------------------------------|
 B|-------------------------------|
 G|---------------3---2-2-3---2---|
 D|-3---------3-3-3---3-3-3---3---|
 A|-3---------3-3-3---3-3-3---3---|
 E|-1-----------------------------|

 


 |


 

 
 e|-------------------------------|
 B|-------------------------------|
 G|-2-------------3---2-2-3---2---|
 D|-3-------------3---3-3-3---3---|
 A|-3---------3-3-3---3-3-3---3---|
 E|-1---------1-1-----1-1-1---1---|

 


 


 Chorus


 


 

 
 e|-------------------------------|
 B|-------------------------------|
 G|------------------3-3-5-5------|
 D|------------------3-3-5-5------|
 A|-5----5-3-5-5-----1-1-3-3------|
 E|-3----3-1-3-3------------------|

 


 | x4


 

 
 e|-------------------------------|
 B|-------------------------------|
 G|------------------3-3-5-5------|
 D|------------------3-3-5-5------|
 A|-5----5-3-5-5-----1-1-3-3------|
 E|-3----3-1-3-3------------------|

 


 


 Verse


 


 

 
 e|------------------------------------|
 B|-----3--------3---------------------|
 G|-----------------------5---3-5------|
 D|-3/5------3/5------3/5---5----------|
 A|------------------------------------|
 E|------------------------------------|

 


 | x6


 

 
 e|------------------------------------|
 B|-----3--------3---------------------|
 G|---0-0------0-0------0-5-0-3-5------|
 D|---0-0------0-0------0-5-0-3-5------|
 A|------------------------------------|
 E|------------------------------------|

 


 


 Pre-Chorus


 


 

 
 e|---------------3-------3-------|
 B|-3-------------3---3-3-3---3---|
 G|-2-----------2-2---2-2-2---2---|
 D|-0-----------0-----0-0-----0---|
 A|-------------------------------|
 E|-------------------------------|

 


 |


 

 
 e|---------------3---2-2-3---2---|
 B|-3-------------3---3-3-3---3---|
 G|-2-----------2-2---2-2-2---2---|
 D|-0-----------0-0---0-0-0---0---|
 A|-------------------------------|
 E|-------------------------------|
 e|-------------------------------|
 B|-------------------------------|
 G|---------------3---2-2-3---2---|
 D|-3---------3-3-3---3-3-3---3-3-|
 A|-3---------3-3-3---3-3-3---3-3-|
 E|-1-----------------------------|

 


 |


 

 
 e|-------------------------------|
 B|-------------------------------|
 G|-2-------------3---2-2-3---2-2-|
 D|-3-------------3---3-3-3---3-3-|
 A|-3---------3-3-3---3-3-3---3-3-|
 E|-1---------1-1-----1-1-1---1-1-|

 


 


 Chorus


 


 

 
 e|-------------------------------|
 B|-------------------------------|
 G|------------------3-3-5-5------|
 D|------------------3-3-5-5------|
 A|-5----5-3-5-5-----1-1-3-3------|
 E|-3----3-1-3-3------------------|

 


 | x4


 

 
 e|-------------------------------|
 B|-------------------------------|
 G|------------------3-3-5-5------|
 D|------------------3-3-5-5------|
 A|-5----5-3-5-5-----1-1-3-3------|
 E|-3----3-1-3-3------------------|

 


 


 Bridge


 You got me burnin...


 

 
 e|--------1-----------------------------|
 B|--------1-----------------------------|
 G|-2----2-2----2-2-2-3----2-2-3----2----|
 D|-3----3-3----3-3-3-3----3-3-3----3----|
 A|-3----3-3----3-3-3-3----3-3-3----3----|
 E|--------------------------------------|

 


 |


 

 
 e|--------1-----------------------------|
 B|--------1-----------------------------|
 G|-2----2-2----2-2-2-3----2-2-3----2----|
 D|-3----3-3----3-3-3-3----3-3-3----3----|
 A|-3----3-3----3-3-3-3----3-3-3----3----|
 E|-1----1-1----1-1-1-1----1-1-1----1----|
 e|-----------------------------------|
 B|-----------------------------------|
 G|-2-2-2-2-2-2-2-3----2-2-3----2-----|
 D|-3-3-3-3-3-3-3-3----3-3-3----3-----|
 A|-3-3-3-3-3-3-3-3----3-3-3----3-----|
 E|-----------------------------------|

 


 |


 

 
 e|-----------------------------------|
 B|-----------------------------------|
 G|-2-2-2-2-2-2-2-3----2-2-3----2-----|
 D|-3-3-3-3-3-3-3-3----3-3-3----3-----|
 A|-3-3-3-3-3-3-3-3----3-3-3----3-----|
 E|-1-1-1-1-1-1-1-1----1-1-1----1-----| 

 


 


 Guitar Solo


 


 Angus (Overdub)


 


 

 
 e|-------------------------------|
 B|-------------------------------|
 G|-------------------------------|
 D|-------5----8-----8-----10-----|
 A|-10\---------------------------|
 E|-------------------------------|
 e|-------------------------------------------|
 B|-6b8~~~~--8----6-5-------------------------|
 G|-------------7-----7-6p5---5---------------|
 D|-------------------------8---8----5--------|
 A|------------------------------------8b-----|
 E|-------------------------------------------|

 


 


 [+] [+]  

 
 e|------------------------------------------|
 B|------------------------------------------|
 G|-8b10~~~-7-6-5-------5~~~~-5-------5b-----|
 D|---------------8-5h8---------8p5-8--------|
 A|------------------------------------------|
 E|------------------------------------------|
 e|------7b--------------------------------|
 B|-8~~~-----8~~~~~---15----15-15-15-15----|
 G|----------------------------------------|
 D|----------------------------------------|
 A|----------------------------------------|
 E|----------------------------------------|
 e|-----------------------------------------------|
 B|-18-15~~~--------15~~~~------------------------|
 G|-----------15h17--------17p15--------17-15~~~~-|
 D|-----------------------------17~~~-------------|
 A|-----------------------------------------------|
 E|-----------------------------------------------|
 e|--------------20~~~----------------------20b22~~~~-|
 B|-------------------20----18b-20-20-18-20-----------|
 G|-15b17~~~~------------19---------------------------|
 D|---------------------------------------------------|
 A|---------------------------------------------------|
 E|---------------------------------------------------|

 


 


 Angus and Malcolm (Under solo)


 


 

 
 e|----------------------------|
 B|----------------------------|
 G|------------------3----5----|
 D|-5----5-5---5-5-5-3----5----|
 A|-5----5-5---5-5-5-1----3----|
 E|-3----3-3---3-3-3-----------|

 


 | x4


 

 
 e|----------------------------|
 B|----------------------------|
 G|------------------3----5----|
 D|-5----5-5---5-5-5-3----5----|
 A|-5----5-5---5-5-5-1----3----|
 E|-3----3-3---3-3-3-----------|
 e|---------------3-------3-------|
 B|-3-------------3---3-3-3---3---|
 G|-2-----------2-2---2-2-2---2---|
 D|-0-----------0-----0-0-----0---|
 A|-------------------------------|
 E|-------------------------------|

 


 |


 

 
 e|---------------3---2-2-3---2---|
 B|-3-------------3---3-3-3---3---|
 G|-2-----------2-2---2-2-2---2---|
 D|-0-----------0-0---0-0-0---0---|
 A|-------------------------------|
 E|-------------------------------|
 e|-------------------------------|
 B|-------------------------------|
 G|---------------3---2-2-3---2---|
 D|-3---------3-3-3---3-3-3---3-3-|
 A|-3---------3-3-3---3-3-3---3-3-|
 E|-1-----------------------------|

 


 |


 

 
 e|-------------------------------|
 B|-------------------------------|
 G|-2-------------3---2-2-3---2-2-|
 D|-3-------------3---3-3-3---3-3-|
 A|-3---------3-3-3---3-3-3---3-3-|
 E|-1---------1-1-----1-1-1---1-1-|

 


 


 Chorus


 


 

 
 e|-------------------------------|
 B|-------------------------------|
 G|------------------3-3-5-5------|
 D|------------------3-3-5-5------|
 A|-5----5-3-5-5-----1-1-3-3------|
 E|-3----3-1-3-3------------------|

 


 | x4


 

 
 e|-------------------------------|
 B|-------------------------------|
 G|------------------3-3-5-5------|
 D|------------------3-3-5-5------|
 A|-5----5-3-5-5-----1-1-3-3------|
 E|-3----3-1-3-3------------------|

 


 


 Guitar Solo 2


 


 Angus (Overdub)


 


 

 
 e|------------------------------|
 B|-13b15~~~13p11--------11b13---|
 G|---------------12~~~----------|
 D|------------------------------|
 A|------------------------------|
 E|------------------------------|
 e|------------------------------|
 B|-20-----18b20------18-20~~~---|
 G|----19----------19------------|
 D|------------------------------|
 A|------------------------------|
 E|------------------------------|
 e|------------------------------|
 B|-20----18---------------------|
 G|----19----17b19r17-15-17-15~~~|
 D|------------------------------|
 A|------------------------------|
 E|------------------------------|
 e|---------------------------------|
 B|-18---18-18b20~~~~--20-18-20~~~--|
 G|---------------------------------|
 D|---------------------------------|
 A|---------------------------------|
 E|---------------------------------|

 


 


 Angus and Malcolm (Under solo)


 


 

 
 e|-------------------------------|
 B|-------------------------------|
 G|------------------3-3-5-5------|
 D|------------------3-3-5-5------|
 A|-5----5-3-5-5-----1-1-3-3------|
 E|-3----3-1-3-3------------------|

 


 | x4 Slow it down the on the fourth


 

 
 e|-------------------------------| time
 B|-------------------------------|
 G|------------------3-3-5-5------|
 D|------------------3-3-5-5------|
 A|-5----5-3-5-5-----1-1-3-3------|
 E|-3----3-1-3-3------------------|
 e|----------|
 B|----------|
 G|-2--------|
 D|-3--------|
 A|-3--------|
 E|-1--------|

 


 


 Outro Lick


 


 [+]  

 
 e|---------------------------------------------|
 B|---------------------------------------------|
 G|-7~~~~---5---5---------------------3r5r~~~~~-|
 D|-----------8---5-8-5-------------------------|
 A|---------------------8-5-3-------------------|
 E|---------------------------6-3-1-3-----------|


Important: The song above is NOT stored on the Chordie server. The original song is hosted at www.guitaretab.com. Chordie works as a search engine and provides on-the-fly formatting. Chordie does not index songs against artists'/composers' will. To remove this song please click here.

This song is displayed as text-only. Transposing and tuning is only available for chordpro-songs.
Rate #1 of 1 versions

Login - add to songbook

SHARE PAGE  



You need to log in to post comments