Guitar Tabs, Chords and Lyrics
Server problems seems to be fixed. Chordie has been experiencing problems with songs disappearing. These issues now seems to be fixed, but still verifying the fix. If you find anything strange, please email admin@chordie.com.


Kleine man  Acda en De Munnik

Intro:
 
 e-5-3-----------------3--10-8-7-8-5--8-7-3-5-7--|
 B------5-3-0---3-5-3----------------------------|
 G-------------5---------------------------------|
 D-----------------------------------------------|
 A-----------------------------------------------|
 E-----------------------------------------------|
 e-5-3------------------3-5---5-5-5-3-2-3--------|
 B------5-3-0---3-5-3----------------------------|
 G-------------5---------------------------------|
 D-----------------------------------------------|
 A-----------------------------------------------|
 E-----------------------------------------------|

[G]Ik zie een [Cadd9]lang verloren [D]man
Niet in [Cadd9]staat te [G]schuilen [Cadd9]voor de [D]regen[Cadd9]
[G]Jij zegt ?die [Cadd9]man die kan er [D]tegen
Die zal wel [Cadd9]niet van [G]suiker [Cadd9]wezen [D]dan?[Cadd9]
[Em7]En ik waarschuw met mijn [A]ogen
[Em7]Maar je loopt al op hem [A]af
En je [Cadd9]pakt z?n hand, zo zacht, onbe[D]vreesd
En de [C7]man kijkt langzaam op
En hij [G]lacht zijn droeve [Em]ogen
[D]Te lang was niemand aardig geweest
[G]Hé, [Cadd9]kleine [Em]man
Jij doet wat [G]nie[Cadd9]mand meer [D]kan
[G]Hé, [Cadd9]kleine [Em]man
Jij doet wat [G]nie[Cadd9]mand meer [D]kan
Jij ziet [C]alleen het mooie er[G]van
Jij [D]lief kleine [C]man
Ik zie een man die niet meer leeft
Alleen nog wacht op 't einde van de pijn
Jij ziet een man die wel heel rijk moet zijn
Omdat ie juist veel tassen bij zich heeft
En ik vraag hem wat hij wil
Of ik soms ergens helpen kan
Zoek met rechts naar geld, mijn links
Haalt jouw jou hand vrij
En de man zegt ?dat wat ik wou
Kon hij me net nog geven
Hij kan het nog? en we weten het allebei
Hé, kleine man
Jij doet wat niemand meer kan
Hé, kleine man
Jij doet wat niemand meer kan
Jij ziet alleen het mooie ervan
Jij lief kleine man

Important: The song above is NOT stored on the Chordie server. The original song is hosted at www.guitaretab.com. Chordie works as a search engine and provides on-the-fly formatting. Chordie does not index songs against artists'/composers' will. To remove this song please click here.

Text color:
Chord color:
Chord grids: 
Font size:    
Page size: 

A C C7 Cadd9 D Em Em7 G
Rate #2 of 3 versions

Jango Player

Login - add to songbook

SHARE PAGE  



You need to log in to post comments