Guitar Tabs, Chords and Lyrics
Server problems seems to be fixed. Chordie has been experiencing problems with songs disappearing. These issues now seems to be fixed, but still verifying the fix. If you find anything strange, please email admin@chordie.com.


Get Adicted  The Adicts

Song: "Get Adicted"
Band: The Adicts
Album: (This version is a demo version, its 30033x better)
"Songs of Praise" (debut album)
(/) Slide Up (\) Slide Down (h) Hammer On (p) Pull Off (b) Bend (r) Release (v) Vibrato
okay once i fuigured out why "Get Adicted" was spelled wierd i was like OMG i get it,
its a GOOD old school song, no one tabbed it so i did
 
 OKAY PALM MUTE SYMBOL IS!!!!!!!! THIS ------> ************ the ASTERISK, OK?

ILL POST SOME CHORD NAMES TOOOO!!
THERE ARE TWO VERSIONS OF THIS SONG!!!!!!! I TABBED THE "get addicted in '79, get
while you still got time" version,
The Demo version, i think, is personally 40000x Better than the real edited one off
Of Praise" album, whatever maybe it was a demo version
the URL below is the version i tabbed, i did the version of the song "get addicted in
get addicted while you still got time" version, NOT "get addicted cus it aint no crime,
addicted while you still got time"
both versions sound COMPLETELY DIFFERENT! with tempo and alot of other stuff, not key
http://www.youtube.com/watch?v=z5AurfGrnAY&feature=related
you tube video was made by fefojajajajaja, i didnt make it
INTRO
 
 E|-----------------------------|
 B|-----------------------------|
 G|--7---------------7----------|
 D|--7x8-----7-------7x8-----7--| LET chord A5 RING
 A|--5-------7-------5-------7--|
 E|----------5---------------5--|

*** ***
[D5] [A5] [D5] [A5]  
 
 E|-----5-------5-----5------5-----5------5-----5------5-----|
 B|-----7-------5-----7------5-----7------5-----7------5-----|
 G|-----7-------6-----7------6-----7------6-----7------6-----|
 D|-----7-X8----7-----7X8----7-----7X8----7-----7X8----7-----|
 A|-----5-------7-----5------7-----5------7-----5------7-----|
 E|-------------5------------5------------5------------5-----|

[D] [A] [D] [A] [D] [A] [D] [A] 
VERSE pt 1 (0:16-0:21)
 
 E|-------------5-----|
 B|-------------5-----|
 G|-----7-------6-----|
 D|-----7X8-----7-----| X2 let a chord ring
 A|-----5-------7-----|
 E|-------------5-----|

*** ***
[D5] [A]  
Verse Pt 2 (approx. 0:22-0:26)
 
 E|-----5-------5-----|
 B|-----7-------5-----|
 G|-----7-------6-----|
 D|-----7-X8----7-x8--| x2
 A|-----5-------7-----|
 E|-------------5-----|

[A] [D]  
CHORUS
 
 E|--------------------------------------|
 B|--------------------------------------|
 G|-----7--------------------------------|
 D|-----7-x4-----9-------5-------7-------| X3
 A|-----5--------9-x4----5-x4----7-x4----|
 E|--------------7-------3-------5-------|

[D5] [B5] [G6] [A5]  
 
 E|---3---5---|
 B|---3---5---|
 G|---4---6---|
 D|---5---7---|
 A|---5---7---| let both ring out
 E|---3---5---|

[G] [A]  
 
 E|-----5-------5-----5------5-----5-------5-----5-------5-----|
 B|-----7-------5-----7------5-----7-------5-----7-------5-----|
 G|-----7-------6-----7------6-----7-------6-----7-------6-----|
 D|-----7-X8----7-----7X8----7-----7X8-----7-----7X8-----7-----| Amaj Chords
 A|-----5-------7-----5------7-----5-------7-----5-------7-----| let em
 E|-------------5------------5-------------5-------------5-----| ring!!!

*** A *** A *** A *** A
VERSE [D]pt 1[D] [D] [D]
 
 E|-----------------------|
 B|-----------------------|
 G|-----7-----------------|
 D|-----7X8-----7---------| X2 this time the A power chord is strummed
 A|-----5-------7x8-------| 8 times
 E|-------------5---------|

**********
[D5] [A5]  
Verse Pt 2
 
 E|-----5-------5-----|
 B|-----7-------5-----|
 G|-----7-------6-----|
 D|-----7-X8----7-x8--| x2
 A|-----5-------7-----|
 E|-------------5-----|

[D] [A]  
CHORUS
 
 E|--------------------------------------|
 B|--------------------------------------|
 G|-----7--------------------------------|
 D|-----7-x4-----9-------5-------7-------| x3
 A|-----5--------9-x4----5-x4----7-x4----|
 E|--------------7-------3-------5-------|

[D5] [B5] [G6] [A5]  
 
 E|---3---5---|
 B|---3---5---|
 G|---4---6---| LET BOTH RING!
 D|---5---7---|
 A|---5---7---|
 E|---3---5---|

[G] [A]  
SOLO
 
 E|-----------------------|
 B|-----------------------|
 G|-7-7-7-7-5---------5-7-| X4 BBBBUUUT!!! on last one play the
 D|-----------7-7-7-7-----| frets below
 A|-----------------------| **guitarist does switch around note length
 E|-----------------------| from time to time**
 E|-------------|
 B|-------------|
 G|-7-7-7-7-5---|
 D|-----------7-| **BBBBUUUT!!! on last one play**
 A|-------------|
 E|-------------|

CHORDS AFTER SOLO`
 
 E|--5--5--5----5----5----5--5--5----5----5-|
 B|--7--7--7----8----7----5--5--5----5----5-| on last Amaj chord
 G|--7--7--7----7----7----7--7--7----6----7-| 4x on 4th repeat palm mute 8x
 D|--7--7--7----7----7----7--7--7----7----7-|
 A|--5--5--5----5----5----7--7--7----7----7-|
 E|-----------------------5--5--5----5----5-|

D D D DSUS4 D A A ASUS4 A
VERSE Pt1
 
 E|-----------------------|
 B|-----------------------|
 G|-----7-----------------|
 D|-----7X8-----7---------| X2 again this time the A power chord is strummed
 A|-----5-------7x8-------| 8 times
 E|-------------5---------|

*********
[D5] [A5]  
VERSE Pt 2
 
 E|-----5-------5-----|
 B|-----7-------5-----|
 G|-----7-------6-----|
 D|-----7-X8----7-x8--| x2
 A|-----5-------7-----|
 E|-------------5-----|

[D] [A]  
CHORUS
 
 E|--------------------------------------|
 B|--------------------------------------|
 G|-----7--------------------------------|
 D|-----7-x4-----9-------5-------7-------| x3
 A|-----5--------9-x4----5-x4----7-x4----|
 E|--------------7-------3-------5-------|

[D5] [B5] [G6] [A5]  
 
 E|--3----5--|
 B|--3----5--|
 G|--4----6--|
 D|--5----7--|
 A|--5----7--|
 E|--3----5--|

[G] [A]  
CHORUS repeat (this gets repeated, just every chord is just 1 more step up)
 
 E|---------------------------------------|
 B|---------------------------------------|
 G|-----8---------------------------------| x3
 D|-----8-x4-----10-------6-------8-------|
 A|-----6--------10-x4----6-x4----8-x4----|
 E|--------------8--------4-------6-------|

[D#5] [C5] [G#5] [A#5]  
OUTRO
 
 E|--4------6--|
 B|--4------6--|
 G|--5------7--|
 D|--6------8--|
 A|--6------8--|
 E|--4------6--|

[G#maj] [A#maj]  
E|-----|
B|-----|
G|--8--|
D|--8-- LET THAT BITCH RING!!!!
A|--6--|
E|-----|
[D#5]  
THENNN
|||||
ᴠᴠᴠᴠᴠᴠ
 
 E|-------|
 B|-------|

G|--8\\--|
D|--8\\--|
A|--6\\--|
 
 E|-------|

[D#5] 

Important: The song above is NOT stored on the Chordie server. The original song is hosted at www.guitaretab.com. Chordie works as a search engine and provides on-the-fly formatting. Chordie does not index songs against artists'/composers' will. To remove this song please click here.

Text color:
Chord color:
Chord grids: 
Font size:    
Page size: 

A A#5 A#maj A5 B5 C5 D D#5 D5 G G#5 G#maj G6
Rate #1 of 8 versions

Jango Player

Login - add to songbook

SHARE PAGE  




You need to log in to post comments