Guitar Tabs, Chords and Lyrics
Update 25:10. 13:00. Site is back up running again. Songbooks are recovered. Woring on getting search back up..


Nine Lives  Aerosmith

AEROSMITH NINE LIVES ALBUM: Complete (Almost) Tablature
I just compiled this and in no way tabbed it
songs:
Compiled by Adrian Moores (b.moores@nf.sympatico.ca)
1. Nine Lives (tabbed by Bryson Munier & Barry Watson)
2. Falling in Love (tabbed by Bryson Meunier & Fulvio Lepore)
3. Hole in my Soul (tabbed by Patrick Van Hoorn)
4. Tastes of India (tabbed by Bryson Meunier)
5. Full Circle (tabbed by Dave Musto)
6. Somethin Gotta Give (tabbed by Barry Watson & Denis Jacob)
7. Ain't That a Bitch (tabbed by Bryson Meunier and Denis Jacob)
8. The Farm (tabbed by Denis jacob)
9. Crash (tabbed by Denis Jacob)
10. Kiss Your past Good©Bye (tabbed by Denis Jacob)
11. Pink (tabbed by Denis Jacob)
12. Attitude Adjustment (tabbed by Bryson Meunier)
13. Fallen Angels (tabbed by Denis Jacob)
send corrections to
Bryson => meunier.1@osu.edu
Barry => n1ouvv75@ns.sympatico.ca
Denis => edj1234@deneb.ci.umoncton.ca
Fulvio => flepore@tinet.ch
Patrick => pmhoorn@hotmail.com
****************
* "NINE LIVES" *
****************
 
 E--------------------------------|
 B--------------------------------|
 G--------------------------------|
 D--------------------------------|
 A--------------------------------|

E--2\5~~~~~~~~~~~~~~~~~~~~~~~~---|
followed by massive feedback, cat noises, etc...
main riff- G5 A5 C5 A
 
 E--------------------------------------------------|
 B------------------------------------------2--2----|
 G--------------------------------------5---2--2----|
 D-----------5-----------------------x--5---2--2----|
 A-----------5-----------------5\7-x-x--3---0--0----|
 E--(0)-0-0--3-----------0-0-0-3\5-x----------------|

And in a [E]wink, the funk was all ar[B]ound [F#]me
And I th[E]ink, I'm dead in love ag[B]ain
C# (for the entire chorus)
Nine lives, feelin' lucky, nine lives, live again...
 
 E-----------------|
 B-----------------|
 G-----------------|
 D-----------------|
 A--5-----5-----5--|
 E--3-0-0-3-0-0-3--|
 E----------------------------------------------------------------|
 B----------------------------------------------------------------|
 G--13--12--10--12p10-10/9-9-b--r~~~~~---13--12--10/8--8-6--------|
 D----------------------------------------------------------7-5-7-|
 A----------------------------------------------------------------|
 E----------------------------------------------------------------|
 E------------------------------------------------------------5---|
 B-5---5----------------------------------------------------5---5-|
 G-5---5---------5--------5--------5--------5-----5-7(7)b-r-------|
 D-----5--7p5------7p5------7p5------7p5------7p5-----------------|
 A------------7--------7--------7--------7------------------------|
 E----------------------------------------------------------------|
 E-------------------|
 B--8b--r-5-8b--r----|
 G-------------------|
 D-------------------|
 A-------------------|
 E-------------------|

or try this (same notes, different position; closer to what Brad
plays live):
 
 E---------------------------------------------------------|
 B--8--7--5-7p5-5/4-5~~~~~~~-8--7--5-------------------5---|
 G-----------------------------------8--7--5-----------5---|
 D--------------------------------------------7--5--7------|
 A---------------------------------------------------------|
 E---------------------------------------------------------|
 E----------------------------------------------------------5---|
 B---5----------------------------------------------------5---5-|
 G---5---------5--------5--------5--------5-----5-7(7)b-r-------|
 D---5--7p5------7p5------7p5------7p5------7p5-----------------|
 A----------7--------7--------7--------7------------------------|
 E--------------------------------------------------------------|
 E-------------------|
 B--8b--r-5-8b--r----|
 G-------------------|
 D-------------------|
 A-------------------|
 E-------------------|

* "Falling In Love(Is Hard On The Knees)" *
*******************************************
[F]You're [G]so [G]bad, [F]You're [G]so [G]bad, [F]You're [G]so
Y[F]ou're s[G]o b[G]ad, Y[F]ou're s[G]o b[G]ad, Y[F]ou're s[G]o
You th[D]ink you're in l[Bb]ove like it's a r[C]eal sure th[D]ing
But [D]every time you f[Bb]all you get your [C]ass in a sl[D]ing
You [D]used to be str[Bb]ong but now it's [C]ooh baby pl[D]ease
'cause f[D]alling in l[Bb]ove is so h[C]ard on the kn[G]ees
 
 this riff is played over the chorus E-----------------------------------------------|---------------|
 B---------3----------3----------3-----------3---|--------3------|
 G------2----------2----------0-----------2------|-----0---------|
 D---0--------------------------------0----------|---------------|
 A-------------1----------3----------------------|--3------------|
 E-----------------------------------------------|------------3--|

[Gm]We was mak[C]ing love when you t[Bb]old me that you l[Eb]oved me
[C]I thought ol' c[Eb]upid he was t[Bb]aking [Gm]aim
[Gm]I was bel[C]iever when you t[Bb]old me that you l[Eb]oved me
[C]And then you c[Eb]alled me someone [Bb]elses n[Gm]ame
guitar 2 is barely audible at first, but eventually this is played:
guitar 2-
 
 E----------------------------15~~~~~~~~~~~~~~~~--|
 B------------------------15----------------------|
 G-------13~~~~~~~~~~-----------------------------|
 D---12-------------------------------------------|
 A------------------------------------------------|
 E------------------------------------------------|

bridge
 
 E-------------------------------------------------------------|
 B--9-------11--11--11---------9-------11-------11-----9-------|
 G--9-------11--11--11--11b--r-9-------11-------11b--r-9-------|
 D----10-10-----10--10-----------10-10----10-10----------10-10-|
 A-------------------------------------------------------------|
 E-------------------------------------------------------------|
 E---------------------------------------------------|‘
 G--11--------11b--r-9---------11-b-11--11----11b-r--|
 D-----10-10-----------10-(10)-------------10--------|
 A---------------------------------------------------|
 E---------------------------------------------------|

[F](p[G]la[G]y a[F#]s i[G#]ndi[G#]vidu[G]al[A] n[A]ote[G#]s)[A#] [A#] [A] [B] [B] [A#]
[Cm]What are you looking for
it's got to be hard core
must be some kind of nouveau riche
[Cm]Is this your only chance
[Cm/B]or some hypnotic trance
[Cm/Bb]Let's get you on a tighter l[A]eash
(part of it)
 
 E---------------------------------------------------------------|
 B--15----15----15----15----15----15----15----15----15----15-----|
 G--18b-r-18b-r-18b-r-18b-r-18b-r-18b-r-18b-r-18b-r-18b-r-18b-r--|
 D---------------------------------------------------------------|
 A---------------------------------------------------------------|
 E---------------------------------------------------------------|
 E---------------------------------------------------------------|
 B-15----15------------------------------------------------------|
 G-18b-r-18b-r-18b---r---------18\20-----18b-r----18b-r----------|
 D---------------------15------------18--------17-------15--(15)-|
 A---------------------------------------------------------------|
 E---------------------------------------------------------------|
 E-------------------------------------------|
 B--15~~~-13--15-------15--------------------|
 G---------------13----------13b-r----13-13--|
 D------------------15----15-------15--------|
 A-------------------------------------------|
 E-------------------------------------------|...

This is where I get lost. When it slows down it looks like this:
full bend
 
 E--15b--15r-13-15-13------21b--r----21b--r----21b--r----21b--r----21b--r|
 B--------------------15/---------20--------20--------20--------20-------|
 G-----------------------------------------------------------------------|

[F] [G] [G] [F#] [G#] [G#] [G] [A] [A] [G#] [A#] [A#] [A] [B] [B] [A#] 
* "HOLE IN MY SOUL" *
*********************
(2x)
 
 e+-5-----5----|-7-----7----|-8-----8----|-7-----7----|
 B+-6-----6----|-6-----6----|-6-----6----|-6-----6----|
 G+----5-----5-|----5-----5-|----5-----5-|----5-----5-|
 D+------------|------------|------------|------------|
 A+------------|------------|------------|------------|
 |-5-----5----|-7-----7----|-8-----8----|-7-----5----|
 |-6-----6----|-6-----6----|-6-----6----|-6-----6----|
 |----5-----5-|----5-----5-|----5-----5-|----5-----5-|
 |------------|------------|------------|------------|
 |------------|------------|------------|------------|
 |------------|------------|------------|------------|
 |-5-----5----|-5-----5----|-3-----3----|-3-----3----|
 |-5-----5----|-5-----5----|-5-----5----|-5-----5----|
 |----4-----4-|----4-----4-|----4-----4-|----4-----4-|
 |------------|------------|------------|------------|
 |------------|------------|------------|------------|
 |------------|------------|------------|------------|

[Dsus4]Is it ove[D]r
[C]Is it over
Cause I'm blowin' o[Dsus4]ut the[D] [Dsus4] f[G]lame
[G]Take a walk outside your [Dsus4]mind[D]
[Am]Tell me how it feels to be
[C]The one who turns the knife inside of me
[G]Take a look and you will [Dsus4]find t[D]here's [Am]nothing there girl
Yeah I swear, I'm [C]telling you girl yeah 'cause
There's a [D#]hole in my [C]soul that's been [G]killing me fo[G#]rever
It's a [F]place where a [C#]garden never [D#]grows
There's a [D#]hole in my [C]soul, yeah I [G]should have known [G#]better
'Cause your [F]love's like a [C#]thorn without a [D#]rose
interlude:
[D]**[G]**[G]**[G]**************‘
********************
God I love the sweet taste of India Lingers on the tip...
 
 E--------------------------------------------------------------------4{-----|
 B------------------------------------------------------------------5--v--(5)|
 G---------------------1------2---4---2-1---------------------1-2\4----------|
 D-----2b-r-2-2b-r--2---------------------2-----2b-r-2-2b-r-2----------------|
 A---------------------------------------------------------------------------|
 E--0----------------------------------------0-------------------------------|

continue with similar.
Lingers on the tip of my tongue
Gotta love the sweet taste of India
Blame it on the beat of the drum
God I love the sweet taste of India
Lingers on the tip of my tongue
Gotta know that what's gotten into ya
Any cat man do when it's done
(The verse is just the E string and an F chord)
E--[F]1--|
B--1--|
G--2--|
D--3--|
A-----|
E-----|
[E]Oh yeah she's got that kind of love incense
That lives in her back room[F]
And when it mixes with the funk my friend
It turns into perfume
When you are born you're afraid of the darkness
 
 E---------------------------------------------------|
 B---------------------------------------------------|
 G---------2--------------2-----------2----------2---|
 D------2--------------2-----------2----------2------|
 A--0------------------------------------------------|
 E---------------3-----------1------------3----------|

And then vou're afraid of the light
But I'm not afraid when I dance with my shadow
D E A C‘
 
 B-----------------------------------------|
 G---7\9-9-9--7\9-9--7---------------------|
 D---7\9-9-9--7\9-9--7----7------5---------|
 A---5\7-7-7--5\7-7--5----7------5---------|
 E------------------------5------3---------|

This time I'm gonna get it right
To think of what I'll get tonight
Just lookin' for a little taste
She'll steal the smile right off your face
At some point the rhythm guitar plays a heavily distorted
[E] [-] [F5]  
Also at some point, F# and F chords are arpeggiated, which lookssomething
like this:
[F#] [F]  
 
 E------------------------------------------------------------|
 B------------------------------------------------------------|
 G------------3------------------3-----------------2----------|
 D-------4------4---4-------4------4---4------3------3---3----|
 A-----4---4------4-------4---4------4------3---3------3------|
 E--2------------------2------------------1-------------------|

This is followed by this little lead fill:
lead gtr(rt.spkr.)-
 
 E-------------------------------------------|
 B-------------------------------------------|
 G--10-b-r--8\10/8---6-b-r-5\6/5--4\5/3------|
 D-------------------------------------------|
 A-------------------------------------------|
 E-------------------------------------------|

and then:
[Em]  
 
 |--rake------|
 E--0---------------|
 B----0-------------|
 G------0-----------|
 D--------2---------|
 A----------2-------|
 E------------0-----|

*****************
* "Full Circle" *
*****************
riff
 
 G--3----3--5--7-7-5-5----7-5-5-3-3---7-5-3-0-0-3-0-3-0-
 |--3----2----0----0----------------------------3---|
 |--3----3----0----1----------------------------3---|
 |--0----2----0----0-------------------------4------|
 |--0----0----2----2--------5-0--5-0---3--4--5------|
 |--x---------2----3--------3-0--3-0---3--4--5------|
 |--3---------0------------------------1--2--3------|

Verse/Chorus:
 
 |--3----2----0----0----------|
 |--3----3----0----1----------|
 |--0----2----0----0----------|
 |--0----0----2----2----------|
 |--x---------2----3----------|
 |--3---------0---------------|

Pre-Chorus:
 
 |--1----0----3--------------|
 |--1----1----3--------------|
 |--2----0----0--------------|
 |--3----2----0--------------|
 |-------3----x--------------|
 |------------3--------------|

Bridge:
 
 |----------------------------------|
 |----------------------------------|
 |--3-------5---------3-------------|
 |--3---3---5---5-----3---3---7---7-|
 |--1---3---3---5-----1---3---7---7-|
 |------1-------3---------1---5---5-|

During solo:
 
 |-------------------------------------|
 |-------------------------------------|
 |--7---5---4---5----9---7---6---7-----|
 |--7---5---4---5----9---7---6---7-----|
 |--5---3---2---3----7---5---4---5-----|
 |-------------------------------------|

Chorus 2:
 
 |--0----0----2----2----------|
 |--2----0----2----3----------|
 |--2----1----2----2----------|
 |--2----2----4----0----------|
 |--0----2----4---------------|
 |-------0----2---------------|
 |--------------------------|
 |--------------------------|
 |----7-0---7-0---5--6--7---|
 |----5-0---5-0---5--6--7---|
 |----------------3--4--5---|

****************************
* "Something's Gotta Give" *
****************************
intro is G and A over and over eneding with C every cycle
like G A G A G A C G A G A G A G
[A]Cyberotic head explode
[A]Information overload
And [F]I just can't [D]take anym[A]ore
And [F]I'm gonna br[D]eak
(Something's gotta give)
[A]Tell me [C]when to [D]turn the screw, does the [F]noise in [E]my head b[A]otheryou
(after solo it goes F F# G then to E and back into chorus)
************************
* "Ain't That A Bitch" *
************************
"Up in Smoke..." "You take a hit..."
 
 E---------------------------------------------------------------|
 B---------------------------------------------------------------|
 G---------8~~~~~~~---------8~~~-11-10~~~~~~~---------8~~~~~~----|
 D--3\(7)------------3\(7)---------------------3\(7)-------------|
 A---------------------------------------------------------------|
 E---------------------------------------------------------------|

"Strung out..."
 
 E--------------------------------------8-------8----------------|
 B---------------------------------11p8----11p8----11p8-----11p8-|
 G---------8~~~~~-\11-10~~~~~~~~~--------------------------------|
 D--3\(7)--------------------------------------------------------|
 A---------------------------------------------------------------|
 E---------------------------------------------------------------|
 E-8-------8----------------8---------------|
 B----11p8----11p8-----11p8----11p8---------|
 G------------------------------------------|
 D------------------------------------------|

Up in smoke, you lost another lover
As you [Gm]take a hit off your last cigar[C]ette
[G#]Strung out, [Bb]burn out
Yeah, you're [Cm]down on your luck and you [Bb]don't give a... huh
Till the [G#]best part of you [Bb]starts to twitch... ain't that a bitch
[Cm]Freak out! I'm a[Fm]lone now!
I [Bb]feel just like I'm losing my [Eb]mind
'Cause [Eb/D]love is like the [Cm]right dress on the [G#]wrong girl
You [Eb]never know what you're gonna [Bb]find
You [Cm]think you're high and [Fm]fine as wine
Then you [Bb]wind up like a dog in a [Eb]ditch
'Cause [Eb/D]love is like a [Cm]wrong turn on a [G#]cold night
[Fm]Yeah, ain't that a [Eb]bitch!
gliss
 
 E---------------------------------------------------------------|
 B---------------------------------------------------------------|
 G---------13--12~~~~~~~~~~~----------11--/9~~~~~~~~-/(1)--------|
 D---------------------------------------------------------------|
 A--12\13----------------------10\11-----------------------------|
 E---------------------------------------------------------------|

I haven't figured out the intermediary chords yet.
[Cm]In a daze, in the [Fm]throes of emotion
[Cm]You see God in the [Fm]devil's eyes
 
 E--------8/10--------------------|
 B----------------------10/8------|
 G--8\10--------------------------|
 D----------------8\10------------|
 A--------------------------------|
 E--------------------------------|

[G#] [Bb]  
You [Cm]wouldn't know a [Bb]kiss if it was on your face
You could [G#]tell it to the jury but you [Bb]ain't got no case
solo- gradual gradual
 
 E---------------------------------------------------------------|
 B---------------------------------------------------------------|
 G---0--h5\7-0-h-7-b----h-9--r--9b--r-p7--\(9)--9b-r-----13b-----|
 D----------------------------------------------------x----------|
 A---------------------------------------------------------------|
 E---------------------------------------------------------------|

full P.H.
 
 E---------------------------------------------------------------|
 B---------------------------------------------------------------|
 G----r-b-r-13b-r/----0--h8b---8r\(10)\(13)~~~~~-13/(5)-5p3---3--|
 D------------------5---------------------------------------5----|
 A---------------------------------------------------------------|
 E---------------------------------------------------------------|
 P.H. |-----v----|
 E-----------3----6p3-----3--------------------13~~~-13----------|
 B-------------3------3-6--------------------x----------13-------|
 G-3b-rp0--------------------0-3b-rp0--------x-------------16p13-|
 D--------3---------------------------5\(13)---------------------|
 A---------------------------------------------------------------|
 E---------------------------------------------------------------|
 |----v----|
 E----------------13-13~~~~~------------------------------------------------|
 B----------------------------15-17b-r~~~-15-17-17b-r-15-13-13--13----------|
 G----13-16b-r-13--------------------------------------------------13-------|
 D-15-----------------------------------------------------------------13h15-|
 A--------------------------------------------------------------------------|
 E--------------------------------------------------------------------------|

NOTE: There are some places in the solo that I marked as pinchharmonics(P.H.).I don't think what's played is actually a pinchharmonic, but I don't know what else to call it. It's the soundthat's made when you hammer on to an open string, whatever that'scalled technically. As usual, you're on your own with the timing.
**************‘
**************
intro: Em - C7
[Em] [-] [C7]  
Joe Perry plays this during the C7:
 
 e-----------------
 B-----------------
 G-3-3-3-3-3-3-2-0-
 D-----------------
 A-----------------
 E-----------------

verse:
 
 E--7--7--7------6--6--5--------------------------------|
 B--5--5--8--5---5--5--5--8-8b----r~~~~~~~--------------|
 G------------------------------------------------------|
 D------------------------------------------------------|
 A------------------------------------------------------|
 E------------------------------------------------------|

repeat that several times, then play this:
 
 E--7--7--7------6--6--5--------------------------------|
 B--5--5--8--5---5--5--5--8--5~~~~~~~~------------------|
 G------------------------------------------------------|
 D------------------------------------------------------|
 A------------------------------------------------------|
 E------------------------------------------------------|

[A] [B] There's a c[C]ockroach in my coffee
[A] [B] There's a n[C]eedle in my arm
[A] [B] And I feel [C]like New York City
[A] [B] [Em] Take me to the farm
(and I think the Buckle up straight jack part starts with:)
[A] [G] [A]Buckle up straightjack [G]sanity is such a drag
etc...
***********
* "Crash" *
***********
 
 ---------------------------------------------------
 ---------------------------------------------------
 --------------------------------------------------- (4 times)
 -3-3-3-3-3-3-6-6-6-6-6-6-6-7-7-7-7-7-7-7-3-3-3-3-3-
 ---------------------------5-5-5-5-5-5-5-1-1-1-1-1-

Sitting in a castle on the floor with Esmorelda
It's time to:
 
 -------------------------------------------------------------------
 -------------------------------------------------------------------
 -------------------------------------------------------------------
 -----------------3-------------5--------------3--------------------
 -5-5-5-5---5---5-1----5--5--5--3-----5--5--5--1------5-5-5-5-5-5---
 -3-3-3-3---3---3------3--3--3--------3--3--3---------3-3-3-3-3-3---

CRASH(Losin' my mind,losin' my mind,losin' my mind)Yeh it's time to
 
 -------------------------------------------------------------------
 -------------------------------------------------------------------
 -------------------------------------------------------------------
 ----------3-3-3-3--------------------------------------------------
 -5-5-5-5--1-1-1-1-3-3-3-3------------5-5-5-5-----------------------
 -3-3-3-3----------1-1-1-1------------3-3-3-3-----------------------

CRASH!!! CRAAAAZYYYY It's time to CRASH!!!!!
****************************
* "Kiss Your Past Goodbye" *
****************************
intro:
 
 e---5---5---5---5-----------------------------------------------
 B---5---5---5---5-----------------------------------------------
 G------------------etc...---------------------------------------
 D---------0-----------------------------------------------------
 A-0---0-------0-------------------------------------------------
 E---------------------------------------------------------------
 e-----5-------5------5------5-----------------------------------
 B-----5-------5------5------5------5-------5------5------5------
 G----------------------------------6-------6------6------6------
 D----------------------------------6-------6------6------6------
 A--0-------0-------0-----0------4-------4------4------4---------
 E---------------------------------------------------------------

Finders keepers losers weep down on forty second street
 
 e------2--------2------2------2--------2-----2-----2-----2------
 B------2--------2------2------2--------2-----2-----2-----2------
 G------2--------2------2------2--------2-----2-----2-----2------
 D--4---------4-------4------4--------3-----3-----3-----3--------
 A---------------------------------------------------------------
 E---------------------------------------------------------------

oh barefoot children cryin' my oh my
(repeat)
chorus:
Kiss your past goodbye
Kiss your past goodb[G]ye[F]
Kiss your past goodb[A]ye[D]
Kiss your past goodb[G]ye [F#]yeah yeah yeah
**********
* "Pink" *
**********
verse:
the chords are:
[G](t[-]he[F] g[-]ui[C]ta[-]r [D]doesn't play just chords though)
here's the C and D part on TAB:
 
 -------------------
 -------------------
 ------0-------0----
 ----2---2---4---4--
 --3-------5--------
 -------------------

*************************
* "Attitude Adjustment" *
*************************
 
 main riff | |--------P.M.--------| 2x
 E---------------------------|--5----3/2---2----3--3----|
 B---------------------------|----3------3---3--3-------|
 G------------------7-7------|--------------------------|
 D--5/4---4---5-----7-7-(7)--|--------------------------|
 A--3/2-0-2-0-3-x-0-5-5-(5)--|--------------------------|
 E---------------------------|--------------------------|

[Bb]I keep wonderin'
[A]I keep wonderin' why
[G5] do the wings of your butter fly?
lead-
 
 E---------------------------------------------------------------|
 B---------------------------------------------------------------|
 G--------3--3-3--------------2--2-2---------------0--0-0--------|
 D--3h4h5--------5p4p3--2h3h4--------4-3-2---0h1h2--------2p1p0--|
 A---------------------------------------------------------------|
 E---------------------------------------------------------------|
 ? E-------------------------|
 B-------------------------|
 G--------0--0-0-----------|
 D--0h1h2--------2p1p0-----|
 A-------------------------|
 E-------------------------|

repeat
chorus: F5 - G5
 
 E-------------------|
 B-------------------|
 G--------------3----|
 D--------3-4-5---5--|
 A--3-4-5------------|
 E-------------------|

[Bb]No more cryin' eyes my friend
[D5]Excusez-fuckin'-moi
*******************
* "Fallen Angels" *
*******************
There's A[C] candle Burning in this w[Am]orld tonite
Anot[G]her child who vanished o[F]ut of sig[G]ht
And a hea[C]rt is broken, another pra[Am]yer in vain
There's a m[G]illion tears that fill a [F]sea of p[G]ain[Am] [G]
[F]Sometimes I st[G]are out my w[C]indow
[F]My thoughts al[G]l drift into[C] space
So[F]metimes I wonder i[C]f there's a bett[G]er place
[C]Where do fallen Angels Go? (I[Am] just don't know)
[G]Where do fallen Angels go? Th[F]ey keep fal[G]ling (Th[Am]ey keep fal[G]ling)

Important: The song above is NOT stored on the Chordie server. The original song is hosted at www.guitaretab.com. Chordie works as a search engine and provides on-the-fly formatting. Chordie does not index songs against artists'/composers' will. To remove this song please click here.

Text color:
Chord color:
Chord grids: 
Font size:    
Page size: 

A A# Am B Bb C C# C7 Cm Cm/B Cm/Bb D D# D5 Dsus4 E Eb Eb/D Em F F# F5 Fm G G# G5 Gm
Rate #1 of 3 versions

Jango Player

Login - add to songbook

SHARE PAGE  



You need to log in to post comments