Guitar Tabs, Chords and Lyrics
Server problems seems to be fixed. Chordie has been experiencing problems with songs disappearing. These issues now seems to be fixed, but still verifying the fix. If you find anything strange, please email admin@chordie.com.


Bianca  Afterhours

tabbed by dan (yellowledbetter_69@hotmail.co.uk)
standard tuning
CHORDS USED
[D] [A] [Bm] [G] [F#m]  
 
 |---0---------------------3--------2---|
 |---3------2-------3------3--------2---|
 |---2------2-------4------0--------2---|
 |---0------2-------4------0--------4---|
 |----------0-------2------2--------4---|
 |-------------------------3--------2---|
 |-----------------------------------|
 |-----------------------------------|
 |-----------------4------0----------|
 |-------2-------0-----------4-------|
 |---------------------2----------0--|
 |----3------------------------------|

intro/ verse
OVER INTRO: D A G
[G]Sei il colore [D]che [Bm] non ho[A]
e n[G]on catture[D]
ma se[Bm] ci fosse un metod[A]o
[G]vorrei che fosse il mio
[D] [A] [G]  
[G]fanne quel ch[D]e vuoi, di noi[Bm] [A]
me l[G]'hai insegna[D]to tu
se c'è un[Bm]a cosa che è immoral[A]e
[G]è la banalità
[D]  
[Bm]lo sai
[A]lo sai
che [D]tu sei troppo bi[F#m]anca pe[G]r restare
mano nella mano con te stessa
e non voglio certo che tu sia
la mia più bella cosa mai successa
VERSE 2 SAME AS VERSE 1, REPEAT ALL ACOUSTIC GUITAR PARTS THE SAME
 
 |--------5------|-----------|------5----|-------2------|
 |------7---7----|------3----|----7---7--|-----3---3----|
 |----7----------|----4---4--|--7--------|---4----------|
 |---------------|--5--------|-----------|--------------|
 |---------------|-----------|-----------|--------------|
 |---------------|-----------|-----------|--------------|

guitar 2
sei il colore che non ho
e che vorrei essere io
ma se ti rende libera
ti regalo il mio
lo sai
lo sai
che tu sei troppo bianca per restare
mano nella mano con te stessa
e non voglio certo che tu sia
la mia più bella cosa mai successa
tu sei troppo bianca per restare
mano nella mano con te stessa
e non voglio certo che tu sia
la mia più bella cosa mai successa
vedrai . . .

Important: The song above is NOT stored on the Chordie server. The original song is hosted at www.guitaretab.com. Chordie works as a search engine and provides on-the-fly formatting. Chordie does not index songs against artists'/composers' will. To remove this song please click here.

Text color:
Chord color:
Chord grids: 
Font size:    
Page size: 

A Bm D F#m G
Rate #2 of 3 versions

Jango Player

Login - add to songbook

SHARE PAGE  



You need to log in to post comments