Guitar Tabs, Chords and Lyrics
Server problems seems to be fixed. Chordie has been experiencing problems with songs disappearing. These issues now seems to be fixed, but still verifying the fix. If you find anything strange, please email admin@chordie.com.


Voglio una pelle splendida  Afterhours

as recorded by AFTERHOURS
Words:M.Agnelli
Music:Afterhours
Tuning Info
[#####################]e as e
[B] [as] [B]  
[G] [as] [G]  
[D] [as] [D]  
[A] [as] [A]  
[E]Se[as]t F[E]requency to 440 Hz
[#####################]  
INTRO
Guitar 1 (Manuel Agnelli)
w/clean
Rhy.fig.1
Fingerstyle
c9 x2
 
 e|------------------------------------------------------|
 B|------------------------------------------------------|
 G|-------0-0-0-------4--2-------------------------------|
 D|-2-2-2-------2-2-2------2p0-2p0--0-0------------------|
 A|3-3-3-3-3-3-3-3-3---3--3---3----3-3-------------------|
 E|------------------------------------------------------|

Guitar 2 (Xabier Iriondo)
w/clean
Rhy.fig.2
c9 x2
 
 e|------------------------------------------------------|
 B|---3--------------------3-----------------------------|
 G|--0--0-----0---0-------0------0--0-0-0----------------|
 D|-2--------0---0-------2---------0---------------------|
 A|3---3-3/10--10--10\3-3---3/5-5-5--5-5\----------------|
 E|------------------------------------------------------|

VERSE 1
Guitar 1
w/clean
Rhy.fig.3
 
 e|----------------------------------------------------------------------------|
 B|----------------------------------------------------------------------------|
 G|-------0-0-0-------4--2--4--2-----------------0-0-0-------4--2--4--2--------|
 D|-2-2-2-------2-2-2---0--0--0--2p0-2p0---2-2-2-------2-2-2---0--0--0---------|
 A|3-3-3-3-3-3-3-3-3------------3---3-----3-3-3-3-3-3-3-3-3--------------------|
 E|----------------------------------------------------------------------------|

Guitar 2
W/clean
 
 e|------------------------------------------------------------------------------------|
 B|---3--------------------3------------------3--------------------3-------------------|
 G|--0--0-----0---0-------0------0--0-0------0--0-----0---0-------0-------0--0-0-------|
 D|-2--------0---0-------2---------0--------2--------0---0-------2----------0----------|
 A|3---3-3/10--10--10\3-3---3/5-5-5--5-5\3-3---3-3/10--10--10\3-3---3/5-5--5--5-5\3----|
 E|------------------------------------------------------------------------------------|

CHORUS 1
Guitar 1,2
w/clean
(You can heard chord rhythm by your self)
G(+) Em C9 Am X2 w/dist W/clean
 
 e|3------0------0------0-----|--------------------------|--------|
 B|3------0------3------1-----|--------------------------|3-------|
 G|0------0------0------2-----|--------------------------|0-------|
 D|0------2------2------2-----|--------------------------|2-------|
 A|2------2------3------0-----|2-2-2-2-2-2-2-2-2-2-2-2-2-|3-------|
 E|3------0-------------------|3-3-3-3-3-3-3-3-3-3-3-3-3-|--------|

INTERLUDE 1
Guitar 1
w/clean
c9
 
 e|--------------------------------------------------------------------|
 B|--------------------------------------------------------------------|
 G|-------0-0-0-------4--2---------------------0-0-0-------4--2--------|
 D|-2-2-2-------2-2-2--0---2p0-2p0--0-0--2-2-2-------2-2-2--0---2p0-2p0|
 A|3-3-3-3-3-3-3-3-3------3---3----3-3--3-3-3-3-3-3-3-3-3------3---3---|
 E|--------------------------------------------------------------------|
 e|--------------------------------------------------------------------------------|
 B|--------------------------------------------------------------------------------|
 G|--------0-0-0-------4--2--4--2----------------0-0-0-------4--2--4--2------------|
 D|--2-2-2-------2-2-2--0--0--0---2p0-2p0--2-2-2-------2-2-2--0--0--0---2p0-2p0----|
 A|-3-3-3-3-3-3-3-3-3------------3---3----3-3-3-3-3-3-3-3-3------------3---3-------|
 E|--------------------------------------------------------------------------------|

Guitar 2
W/clean
 
 e|--------------------------------------------------------------------------------|
 B|---3--------------------3------------------3--------------------3---------------|
 G|--0--0-----0---0-------0------0--0-0------0--0-----0---0-------0-------0--0-0---|
 D|-2--------0---0-------2---------0--------2--------0---0-------2----------0------|
 A|3---3-3/10--10--10\3-3---3/5-5-5--5-5\3-3---3-3/10--10--10\3-3---3/5-5--5--5-5\3|
 E|--------------------------------------------------------------------------------|
 e|-------------------------------------------------------------------------------------------|
 B|---3-------------------------------------------3-------------------------------------------|
 G|--0--0-----0---0---------0--------0--0-0------0--0--------0---0---------0--------0--0-0----|
 D|-2--------0---0--------2---2--------0--------2-----------0---0--------2---2--------0-------|
 A|3---3-3/10--10--10\3-3----3-3/5-5--5--5-5\3-3---3-3/10-10--10--10\3-3----3-3/5-5--5--5-5\3-|
 E|-------------------------------------------------------------------------------------------|

VERSE 2
Guitar 1
w/clean
c9 x2
 
 e|------------------------------------------------------|
 B|------------------------------------------------------|
 G|-------0-0-0-------4--2-------------------------------|
 D|-2-2-2-------2-2-2------2p0-2p0--0-0------------------|
 A|3-3-3-3-3-3-3-3-3---3--3---3----3-3-------------------|
 E|------------------------------------------------------|

Guitar 2
W/clean
 
 e|--------------------------------------------------------------------------------------------|
 B|----3-------------------------------------------3-------------------------------------------|
 G|---0--0-----0---0---------0--------0--0-0------0--0--------0---0---------0--------0--0-0----|
 D|--2--------0---0--------2---2--------0--------2-----------0---0--------2---2--------0-------|
 A|-3---3-3/10--10--10\3-3----3-3/5-5--5--5-5\3-3---3-3/10-10--10--10\3-3----3-3/5-5--5--5-5\3-|
 E|--------------------------------------------------------------------------------------------|

CHORUS 2
Guitar 1,2
w/clean
G(+) Em C9 Am X2 w/dist W/clean
 
 e|3------0------0------0-----|--------------------------|--------|
 B|3------0------3------1-----|--------------------------|3-------|
 G|0------0------0------2-----|--------------------------|0-------|
 D|0------2------2------2-----|--------------------------|2-------|
 A|2------2------3------0-----|2-2-2-2-2-2-2-2-2-2-2-2-2-|3-------|
 E|3------0-------------------|3-3-3-3-3-3-3-3-3-3-3-3-3-|--------|

INTERLUDE 2
Guitar 1
w/clean
c9
 
 e|--------------------------------------------------------------------|
 B|--------------------------------------------------------------------|
 G|-------0-0-0-------4--2---------------------0-0-0-------4--2--------|
 D|-2-2-2-------2-2-2--0---2p0-2p0--0-0--2-2-2-------2-2-2--0---2p0-2p0|
 A|3-3-3-3-3-3-3-3-3------3---3----3-3--3-3-3-3-3-3-3-3-3------3---3---|
 E|--------------------------------------------------------------------|

c9
 
 e|--------------------------------------------------------------------------------|
 B|--------------------------------------------------------------------------------|
 G|--------0-0-0-------4--2--4--2----------------0-0-0-------4--2--4--2------------|
 D|--2-2-2-------2-2-2--0--0--0---2p0-2p0--2-2-2-------2-2-2--0--0--0---2p0-2p0----|
 A|-3-3-3-3-3-3-3-3-3------------3---3----3-3-3-3-3-3-3-3-3------------3---3-------|
 E|--------------------------------------------------------------------------------|

Guitar 2
W/clean
 
 e|--------------------------------------------------------------------------------|
 B|---3--------------------3------------------3--------------------3---------------|
 G|--0--0-----0---0-------0------0--0-0------0--0-----0---0-------0-------0--0-0---|
 D|-2--------0---0-------2---------0--------2--------0---0-------2----------0------|
 A|3---3-3/10--10--10\3-3---3/5-5-5--5-5\3-3---3-3/10--10--10\3-3---3/5-5--5--5-5\3|
 E|--------------------------------------------------------------------------------|
 e|-------------------------------------------------------------------------------------------|
 B|---3-------------------------------------------3-------------------------------------------|
 G|--0--0-----0---0---------0--------0--0-0------0--0--------0---0---------0--------0--0-0----|
 D|-2--------0---0--------2---2--------0--------2-----------0---0--------2---2--------0-------|
 A|3---3-3/10--10--10\3-3----3-3/5-5--5--5-5\3-3---3-3/10-10--10--10\3-3----3-3/5-5--5--5-5\3-|
 E|-------------------------------------------------------------------------------------------|

CHORUS 3
Guitar 2
w/clean
c9
 
 e|-----------------------------------------------------|
 B|---3--------------------3----------------------------|
 G|--0--0-----0---0-------0------0--0-0-0---------------|
 D|-2--------0---0-------2---------0--------------------|
 A|3---3-3/10--10--10\3-3---3/5-5-5--5-5\---------------|
 E|-----------------------------------------------------|

Guitar 2
w/clean
(Guitar 1 makes feedbacks)
G(+) Em C9 Am w/dist W/clean
 
 e|3------0------0------0-----|--------------------------|--------|
 B|3------0------3------1-----|--------------------------|3-------|
 G|0------0------0------2-----|--------------------------|0-------|
 D|0------2------2------2-----|--------------------------|2-------|
 A|2------2------3------0-----|2-2-2-2-2-2-2-2-2-2-2-2-2-|3-------|
 E|3------0-------------------|3-3-3-3-3-3-3-3-3-3-3-3-3-|--------|

INTERLUDE 3
Guitar 1
w/clean
c9 x2
 
 e|--------------------------------------------------------------------------------|
 B|--------------------------------------------------------------------------------|
 G|--------0-0-0-------4--2--4--2----------------0-0-0-------4--2--4--2------------|
 D|--2-2-2-------2-2-2--0--0--0---2p0-2p0--2-2-2-------2-2-2--0--0--0---2p0-2p0----|
 A|-3-3-3-3-3-3-3-3-3------------3---3----3-3-3-3-3-3-3-3-3------------3---3-------|
 E|--------------------------------------------------------------------------------|

Guitar 2
W/clean
 
 e|--------------------------------------------------------------------------------|
 B|---3---------------------------------------3--------------------3---------------|
 G|--0--0-----0---0-------0------0--0-0------0--0-----0---0-------0-------0--0-0---|
 D|-2--------0---0-------2---------0--------2--------0---0-------2----------0------|
 A|3---3-3/10--10--10\3-3---3/5-5-5--5-5\3-3---3-3/10--10--10\3-3---3/5-5--5--5-5\3|
 E|--------------------------------------------------------------------------------|
 e|-------------------------------------------------------------------------------------------|
 B|---3-------------------------------------------3-------------------------------------------|
 G|--0--0-----0---0---------0--------0--0-0------0--0--------0---0---------0--------0--0-0----|
 D|-2--------0---0--------2---2--------0--------2-----------0---0--------2---2--------0-------|
 A|3---3-3/10--10--10\3-3----3-3/5-5--5--5-5\3-3---3-3/10-10--10--10\3-3----3-3/5-5--5--5-5\3-|
 E|-------------------------------------------------------------------------------------------|

OUTRO
Guitar 2
w/clean
>>>>>>>>>>>>>>
 
 e|--------------------------------------------------------------------------------|
 B|---3---------------------------------------3--------------------3---------------|
 G|--0--0-----0---0-------0------0--0-0------0--0-----0---0-------0-------0--0-0---|
 D|-2--------0---0-------2---------0--------2--------0---0-------2----------0------|
 A|3---3-3/10--10--10\3-3---3/5-5-5--5-5\3-3---3-3/10--10--10\3-3---3/5-5--5--5-5\3|
 E|--------------------------------------------------------------------------------|

< Guitar 1 rhy.fig 1 >
 
 e|-------------------------------------------------------------------------------------------|
 B|---3-------------------------------------------3--------------------------3----------------|
 G|--0--0-----0---0---------0--------0--0-0------0--0--------0---0---------0--------0--0-0----|
 D|-2--------0---0--------2---2--------0--------2-----------0---0--------2---2--------0-------|
 A|3---3-3/10--10--10\3-3----3-3/5-5--5--5-5\3-3---3-3/10-10--10--10\3-3----3-3/5-5--5--5-5\3-|
 E|-------------------------------------------------------------------------------------------|

That's all.
SONG TABBED BY BRUNO GAMBA 2003.ANY QUESTION : nobbru@libero.it

Important: The song above is NOT stored on the Chordie server. The original song is hosted at www.guitaretab.com. Chordie works as a search engine and provides on-the-fly formatting. Chordie does not index songs against artists'/composers' will. To remove this song please click here.

Text color:
Chord color:
Chord grids: 
Font size:    
Page size: 

A B D E G
Rate #1 of 2 versions

Login - add to songbook

SHARE PAGE  



You need to log in to post comments