Guitar Tabs, Chords and Lyrics
Update 25:10. 13:00. Site is back up running again. Songbooks are recovered. Woring on getting search back up..


Ossigeno  Afterhours

as recorded by AFTERHOURS
(by nobbru2884)
Words:M.Agnelli
Music:Afterhours
Tuning Info
[#####################]e as e
[B] [as] [B]  
[G] [as] [G]  
[D] [as] [D]  
[A] [as] [A]  
[E]Se[as]t F[E]requency to 440 Hz
[#####################]INTRO
Guitar 1 (Manuel Agnelli)
w/dist.
N.H. N.H. N.H. N.H.(Band members in...)
 
 e|--------(12)--------(12)--------(12)--------(12)-------------------|REPEAT...
 B|-------------------------------------------------------------------|
 G|-------------------------------------------------------------------|
 D|-------------------------------------------------------------------|
 A|-------------------------------------------------------------------|
 E|(12)(12)----(12)(12)----(12)(12)----(12)(12)-----------------------|

N.H. N.H. N.H. N.H. N.H. N.H. N.H. N.H.
Guitar 2 (Xabier Iriondo)
W/dist.
w/pitch shifter?
N.H. N.H. N.H. N.H.
 
 e|--------(12)--------(12)--------(12)--------(12)------|REPEAT...
 B|------------------------------------------------------|(Xabier uses volume control
 G|------------------------------------------------------|to make open/close sound.
 D|------------------------------------------------------|Maybe with a volume pedal.
 A|------------------------------------------------------|
 E|(12)--------(12)--------(12)--------(12)--------------|

N.H. N.H. N.H. N.H.
PRE-VERSE
Guitar 1
w/dist.
Rhy.fig. 1
 
 e|------------------------------------------------------|
 B|------------------------------------------------------|
 G|----------------------0--------------------------0----|
 D|---5h7-5-7hbr5--7hbr--5-------5h7-5-7hbr5--7hbr--5----|
 A|5h7-------------------7/---5h7-------------------7/---|
 E|------------------------------------------------------|

Guitar 2
w/dist.
Rhy.fig. 2
 
 e|---------------------------------------------------------------------------|
 B|---------------------------------------------------------------------------|
 G|-----12h14-12-----12h14-14b-------0--------12h14-----12h14-14b------0------|
 D|12h14--------12h14----------7hbr--5/--12h14-----12h14----------7hbr-5/-----|
 A|---------------------------------------------------------------------------|
 E|---------------------------------------------------------------------------|

Guitar 1
w/dist.
 
 e|------------------------------------------------------|
 B|------------------------------------------------------|
 G|------------------------------------------------------|
 D|7-5---------7-----------------------------------------|
 A|----7-5-7---------------------------------------------|
 E|---------------7/6/5/4/3/2/1p0------------------------|
 P.M.---------------

Guitar 2
w/dist.
 
 e|------------------------------------------------------|
 B|------------------------------------------------------|
 G|-----12h14-----12-14br12------0-----------------------|
 D|12h14-----12h14----------7hbr-5/----------------------|
 A|------------------------------------------------------|
 E|------------------------------------------------------|

VERSE 1
Guitar 2
w/echo
Rhy.fig.3
X2
 
 e|------------------------------------------------------|
 B|------------------------------------------------------|
 G|-----12------14------12--14/16-12---------------------|
 D|12h14---12h14---12h14---------------------------------|
 A|------------------------------------------------------|
 E|------------------------------------------------------|

Lyrics:"Tuo prigioniero babe... gia dipendenza"
Guitar 1
w/dist.
Rhy.fig.4 x2
 
 e|------------------------------------------------------|
 B|------------------------------------------------------|
 G|------------------------------------------------------|
 D|7-5--------7------------------------------------------|
 A|---5/7-5-7--------------------------------------------|
 E|-------------0-0-0-0-0-3-5-3-0------------------------|
 P.M-----------------

Guitar 2
w/dist.
Rhy.fig. 2
CHORUS
Guitar 1
w/dist
E5 C5 D5 x2
 
 e|------------------------------------------------------|
 B|------------------------------------------------------|
 G|------------------------------------------------------|
 D|2--2-2-x-x--10-10-10-10-x-10/12-12-12-12\10-10--------|
 A|2--2-2-x-x--10-10-10-10-x-10/12-12-12-12\10-10--------|
 E|0--0-0-x-x--8--8--8--8--x-8-/10-10-10-10\8--8---------|

Guitar 2
w/dist
E5 C D x2
 
 e|--0----------------------------------------------------|
 B|---0-----5--------7------------------------------------|
 G|-----0----5-------7------------------------------------|
 D|2------5---5-5/7----5-5-x-x-5/7\5----------------------|
 A|2------3---3-3/5----3-3-x-x-3/5\3----------------------|
 E|0------------------------------------------------------|

VERSE 2
Guitar 2
w/echo
Rhy.fig.3
Guitar 1
w/dist.
Rhy.fig.4
Guitar 2
w/dist.
Rhy.fig. 2
CHORUS 2
Guitar 1
w/dist
E5 C5 D5 x2
 
 e|------------------------------------------------------|
 B|------------------------------------------------------|
 G|------------------------------------------------------|
 D|2--2-2-x-x--10-10-10-10-x-10/12-12-12-12\10-10--------|
 A|2--2-2-x-x--10-10-10-10-x-10/12-12-12-12\10-10--------|
 E|0--0-0-x-x--8--8--8--8--x-8-/10-10-10-10\8--8---------|

Guitar 2
w/dist
E5 C D x2
 
 e|--0----------------------------------------------------|
 B|---0-----5--------7------------------------------------|
 G|-----0----5-------7------------------------------------|
 D|2------5---5-5/7----5-5-x-x-5/7\5----------------------|
 A|2------3---3-3/5----3-3-x-x-3/5\3----------------------|
 E|0------------------------------------------------------|

Guitar 1
w/dist.
[E5] [C5] [D5]  
 
 e|------------------------------------------------------|
 B|------------------------------------------------------|
 G|------------------------------------------------------|
 D|2--2-2-x-x--10-10-10-10-x-10/12-12-12-12\10-10--------|
 A|2--2-2-x-x--10-10-10-10-x-10/12-12-12-12\10-10--------|
 E|0--0-0-x-x--8--8--8--8--x-8-/10-10-10-10\8--8---------|

Guitar 2
w/dist.
[E5] [C5] [D5]  
 
 e|------------------------------------------------------|
 B|------------------------------------------------------|
 G|------------------------------------------------------|
 D|2--2-2-x-x--10-10-10-10-x-10/12-12-12-12\10-10--------|
 A|2--2-2-x-x--10-10-10-10-x-10/12-12-12-12\10-10--------|
 E|0--0-0-x-x--8--8--8--8--x-8-/10-10-10-10\8--8---------|

INTERLUDE 1
Guitar 1,2
w/dist
X2
 
 e|---------------------------------------------------------|The second guitar makes
 B|-----------------8-------------------8-------------------|some pull-off on the
 G|-----------------7-------------------7-------------------|sixth string.Don't need tab.
 D|7p5--------------7--7p5--------------7-------------------|
 A|---7-5-7-5-7-5-7-------7-5---5-7-5-7---------------------|
 E|--------------------------7p0----------------------------|

Guitar 1
w/dist
 
 e|-------------------------------------------------------------------------------|
 B|-------------------------------------------------------------------------------|
 G|-------------------------------------------------------------------------------|
 D|---5-7---5h7-5---5h7-5----5h7-5---5-7-7br-5-7br-5-5-7-5-7-5--------------------|
 A|5-7---5h7-----5h7------5h7-----5h7-------7-----7------------7-5-7-5-7-(7)-(7)--|
 E|-------------------------------------------------------------------------------|

Guitar 2
w/dist
This guitar makes very much noise and improvisation strums.Don't need tab.
VERSE 3
Guitar 2
w/echo
 
 e|------------------------------------------------------|
 B|------------------------------------------------------|
 G|-----------------------14/16-12-----------------------|
 D|------------------------------------------------------|
 A|------------------------------------------------------|
 E|------------------------------------------------------|

Lyrics:"...se lo tocchi__"
Guitar 1
w/dist.
Rhy.fig.4
Guitar 2
w/dist.
Rhy.fig. 2
CHORUS 3
Guitar 1
w/dist
E5 C5 D5 x2
 
 e|------------------------------------------------------|
 B|------------------------------------------------------|
 G|------------------------------------------------------|
 D|2--2-2-x-x--10-10-10-10-x-10/12-12-12-12\10-10--------|
 A|2--2-2-x-x--10-10-10-10-x-10/12-12-12-12\10-10--------|
 E|0--0-0-x-x--8--8--8--8--x-8-/10-10-10-10\8--8---------|

Guitar 2
w/dist
E5 C D x2
 
 e|--0----------------------------------------------------|
 B|---0-----5--------7------------------------------------|
 G|-----0----5-------7------------------------------------|
 D|2------5---5-5/7----5-5-x-x-5/7\5----------------------|
 A|2------3---3-3/5----3-3-x-x-3/5\3----------------------|
 E|0------------------------------------------------------|

Guitar 1
w/dist.
[E5] [C5] [D5]  
 
 e|------------------------------------------------------|
 B|------------------------------------------------------|
 G|------------------------------------------------------|
 D|2--2-2-x-x--10-10-10-10-x-10/12-12-12-12\10-10--------|
 A|2--2-2-x-x--10-10-10-10-x-10/12-12-12-12\10-10--------|
 E|0--0-0-x-x--8--8--8--8--x-8-/10-10-10-10\8--8---------|

Guitar 2
w/dist.
[E5] [C5] [D5]  
 
 e|------------------------------------------------------|
 B|------------------------------------------------------|
 G|------------------------------------------------------|
 D|2--2-2-x-x--10-10-10-10-x-10/12-12-12-12\10-10--------|
 A|2--2-2-x-x--10-10-10-10-x-10/12-12-12-12\10-10--------|
 E|0--0-0-x-x--8--8--8--8--x-8-/10-10-10-10\8--8---------|

INTERLUDE 2
Guitar 1,2
w/dist x2
 
 e|---------------------------------------------------------|
 B|-----------------8-------------------8-------------------|
 G|-----------------7-------------------7-------------------|
 D|7p5--------------7--7p5--------------7-------------------|
 A|---7-5-7-5-7-5-7-------7-5---5-7-5-7---------------------|
 E|--------------------------7p0----------------------------|

Guitar 1
w/dist ~ ~ ~ ~ ~ ~
 
 e|-----------------------------------------------------------------------------------------------|
 B|-----------------------------------------------------------------------------------------------|
 G|-----------------------------------------------------------------------------------------------|
 D|---5-7---5h7-5---5h7-5----5h7-5---5-7-7br-5-7br-5----5h7-5---5h7-5---5--7--7--7--7--7br-5-7br-5|
 A|5h7---5h7-----5h7------5h7-----5h7-------7-----7--5h7-----5h7-----5h7------------------7-----7-|
 E|-----------------------------------------------------------------------------------------------|
 e|-------------------------------------------------------------------------------|
 B|-------------------------------------------------------------------------------|
 G|-------------------------------------------------------------------------------|
 D|---5-7---5h7-5---5h7-5----5h7-5---5-7-7br-7br-7br-7br-7br-(7br)-7-5/-----------|
 A|5h7---5h7-----5h7------5h7-----5h7---------------------------------------------|
 E|-------------------------------------------------------------------------------|

Guitar 2
(The same of INTERLUDE 2)
THAT'S ALL.
SONG TABBED BY BRUNO GAMBA 2003 .ANY QUESTION: nobbru@libero.it

Important: The song above is NOT stored on the Chordie server. The original song is hosted at www.guitaretab.com. Chordie works as a search engine and provides on-the-fly formatting. Chordie does not index songs against artists'/composers' will. To remove this song please click here.

Text color:
Chord color:
Chord grids: 
Font size:    
Page size: 

A B C5 D D5 E E5 G
Rate #1 of 3 versions

Jango Player

Login - add to songbook

SHARE PAGE  




You need to log in to post comments