Guitar Tabs, Chords and Lyrics
Server problems seems to be fixed. Chordie has been experiencing problems with songs disappearing. These issues now seems to be fixed, but still verifying the fix. If you find anything strange, please email admin@chordie.com.


Deeds Rendered Upon the Flesh   Agiel

 
 --- A G I E L ---

 


 "Deeds Rendered Upon The Flesh"


 From album: "Dark Pantheons Again Will Reign"


 


 


 TABULATURE LEGEND:


 " - tremolo h - hammer on


 ~ - vibrato \ - slide down


 p - pull off / - slide down


 tr - tremolo picking ^ - pinch harmonics


 = - sustained note b - bend string


 p.m. - palm muting t - tapping


 


 Tuning is D [D, G, C, F, A, D]


 


 [Riff 1a (x2)] 


 

 
 ||--------------------------|--------------------------------------||
 ||o-------------------------|-------------------------------------o||
 ||--------------------------|--------------------------------------||
 ||--------------------------|--------------------------------------||
 ||o-5-4-5-3h6p3-5-4-5-3h6p3-|-5-4-5-3h6p3-------------2h5p2-------o||
 ||--3-2-3-------3-2-3-------|-3-2-3-------3h6p3-2h5p2-------2h5p2--||

 


 . . . . . . . . .


 


 [Riff 1b (x2)] 


 

 
 ||--------------------------------------------------|-
 ||o-------------------------------------------------|-
 ||--------------------------------------------------|-
 ||--------------------------------------------------|-
 ||o-------------------3h6p3-------------------3h6p3-|-
 ||--3h6p3-2h5p2-3h6p3-------3h6p3-2h5p2-3h6p3-------|-

 


 | |


 

 
 ||--------------------------------------------------|-
 ||o-------------------------------------------------|-
 ||--------------------------------------------------|-
 ||--------------------------------------------------|-
 ||o-5-----4-----5-----3h6p3-5-----4-----5-----3h6p3-|-
 ||--3-----2-----3-----------3-----2-----3-----------|-

 


 . . . . . .


 


 

 
 -|---------------------------------------------------||
 -|--------------------------------------------------o||
 -|---------------------------------------------------||
 -|---------------------------------------------------||
 -|-------------------3h6p3-------------2h5p2--------o||
 -|-3h6p3-2h5p2-3h6p3-------3h6p3-2h5p2-------2h5p2---||

 


 | |


 

 
 -|---------------------------------------------------||
 -|--------------------------------------------------o||
 -|---------------------------------------------------||
 -|---------------------------------------------------||
 -|-5-----4-----5-----3h6p3-------------2h5p2--------o||
 -|-3-----2-----3-----------3h6p3-2h5p2-------2h5p2---||

 


 . . .


 


 [Riff 2 (x4)] 


 

 
 ||--------------------------|--------------------||
 ||o-------------------------|-------------------o||
 ||--------------------4"----|--------------------||
 ||--------5"----------------|-8================--||
 ||o----2"----2"----3"----3"-|-6================-o||
 ||--0"----------0"----------|-6================--||

 


 


 [RIFF 1a (x2)] [RIFF 1b (x2)] 


 


 [Riff 3 (x2)] 


 

 
 ||-------------------------|-------------------------||
 ||o------------------------|------------------------o||
 ||-------------------------|-------------------------||
 ||-------------------5-----|------------------4------||
 ||o-4------4-3-----4---4---|-4------4-3-----3---3---o||
 ||--6-6"..-6-5-0-3-------3-|-6-6"..-6-5-0-2-------2--||

 


 


 [Riff 4a (x2)] 


 

 
 ||-----------------------------------------||
 ||o---------------------------------------o||
 ||-----------------------------------------||
 ||-----------------------------------------||
 ||o-6"...--5"------6"-5"------6"-5"-------o||
 ||------------4"..-------3"..-------2"...--||

 


 


 [Riff 4b (x2)] 


 

 
 ||-----------------------------------------||
 ||o---------------------------------------o||
 ||-----------------------------------------||
 ||-----------------------------------------||
 ||o-6"...--5"------6"-5"------6"-5"-------o||
 ||------------4"..-------3"..-------2"...--||

 


 | |


 

 
 ||-----------------------------------------||
 ||o---------------------------------------o||
 ||-----------------------------------------||
 ||--6"...--5"------6"-5"------6"-5"--------||
 ||o-----------4"..-------2"..-------5"...-o||
 ||-----------------------------------------||

 


 


 [Riff 5] 


 

 
 |-------------------------------------------------|-
 |-------------------------------------------------|-
 |-------------------------6h9p6-6h9p6-------------|-
 |-------------------------------------5h8p5-5h8p5-|-
 |-------------6h9p6-6h9p6-------------------------|-
 |-5h8p5-5h8p5-------------------------------------|-

 


 | |


 

 
 |-------------------------------------------------|-
 |-------------------------------------------------|-
 |------------------------------^-------^----------|-
 |-7-----7-7---7-----7------7-7-7~---7--7~---------|-
 |-5-----5-5---5-----5------5-5------5-------------|-
 |-5-----5-5---5-----5------5-5------5-------------|-

 


 . . . . . . . .


 


 

 
 -|---------------------------------------------------|-
 -|-------------8h11p8-8h11p8-------------------------|-
 -|-6h9p6-6h9p6---------------6h9p6-6h9p6-------------|-
 -|---------------------------------------5h8p5-5h8p5-|-
 -|---------------------------------------------------|-
 -|---------------------------------------------------|-

 


 | |


 

 
 -|---------------------------------------------------|-
 -|---------------------------------------------------|-
 -|------------------------------^-------^------------|-
 -|-7-----7-7---7-----7------7-7-7~---7--7~-----------|-
 -|-5-----5-5---5-----5------5-5------5---------------|-
 -|-5-----5-5---5-----5------5-5------5---------------|-

 


 . . . . . . . .


 


 

 
 -|-----------------------------------------|-
 -|-----------------------------------------|-
 -|-----------------------------------------|-
 -|-7-----7-7---7-----7------7-7-^----7--^--|-
 -|-5-----5-5---5-----5------5-5-5~---5--5~-|-
 -|-5-----5-5---5-----5------5-5------5-----|-

 


 | . . . . . . . . |


 

 
 -|-----------------------------------------|-
 -|-----------------------------------------|-
 -|-----------------------------------------|-
 -|-7-----7-7---7-----7------7-7-^----7--^--|-
 -|-5-----5-5---5-----5------5-5-5~---5--5~-|-
 -|-5-----5-5---5-----5------5-5------5-----|-

 


 . . . . . . . .


 


 

 
 -|-----------------------------------------|-
 -|-----------------------------------------|-
 -|-----------------------------------------|-
 -|-7-----7-7---7-----7------7-7------7-----|-
 -|-5-----5-5---5-----5------5-5-^----5--^--|-
 -|-5-----5-5---5-----5------5-5-5~---5--5~-|-

 


 | . . . . . . . . |


 

 
 -|-----------------------------------------|-
 -|-----------------------------------------|-
 -|-----------------------------------------|-
 -|-7-----7-7---7-----7------7-7------7-----|-
 -|-5-----5-5---5-----5------5-5-^----5--^--|-
 -|-5-----5-5---5-----5------5-5-5~---5--5~-|-

 


 . . . . . . . .


 


 

 
 -|-------------------------------------------------|-
 -|-------------------------------------------------|-
 -|-------------------------6h9p6-6h9p6-------------|-
 -|-------------------------------------5h8p5-5h8p5-|-
 -|-------------6h9p6-6h9p6-------------------------|-
 -|-5h8p5-5h8p5-------------------------------------|-

 


 | |


 

 
 -|-------------------------------------------------|-
 -|-------------------------------------------------|-
 -|-------------------------6h9p6-6h9p6-------------|-
 -|-------------------------------------5h8p5-5h8p5-|-
 -|-------------6h9p6-6h9p6-------------------------|-
 -|-5h8p5-5h8p5-------------------------------------|-
 -|---------------------------------------------------|-
 -|-------------8h11p8-8h11p8-------------------------|-
 -|-6h9p6-6h9p6---------------6h9p6-6h9p6-------------|-
 -|---------------------------------------5h8p5-5h8p5-|-
 -|---------------------------------------------------|-
 -|---------------------------------------------------|-

 


 | |


 

 
 -|---------------------------------------------------|-
 -|-------------8h11p8-8h11p8-------------------------|-
 -|-6h9p6-6h9p6---------------6h9p6-6h9p6-------------|-
 -|---------------------------------------5h8p5-5h8p5-|-
 -|---------------------------------------------------|-
 -|---------------------------------------------------|-
 -|-------------------------------------------------|-
 -|-------------------------------------------------|-
 -|-6h9p6-6h9p6-------------------------------------|-
 -|-------------5h8p5-5h8p5-------------------------|-
 -|-------------------------------------6h9p6-6h9p6-|-
 -|-------------------------5h8p5-5h8p5-------------|-

 


 | |


 

 
 -|-------------------------------------------------|-
 -|-------------------------------------------------|-
 -|-6h9p6-6h9p6-------------------------------------|-
 -|-------------5h8p5-5h8p5-------------------------|-
 -|-------------------------------------6h9p6-6h9p6-|-
 -|-------------------------5h8p5-5h8p5-------------|-
 -|---------------------------------------------------|
 -|-8h11p8-8h11p8-------------------------------------|
 -|---------------6h9p6-6h9p6-------------6h9p6-6h9p6-|
 -|---------------------------5h8p5-5h8p5-------------|
 -|---------------------------------------------------|
 -|---------------------------------------------------|

 


 | |


 

 
 -|---------------------------------------------------|
 -|-8h11p8-8h11p8-------------------------------------|
 -|---------------6h9p6-6h9p6-------------6h9p6-6h9p6-|
 -|---------------------------5h8p5-5h8p5-------------|
 -|---------------------------------------------------|
 -|---------------------------------------------------|

 


 


 [Riff 6 (x2)] 


 

 
 ||-----------------------------------|------------------------------------||
 ||o----------------------------------|-----------------------------------o||
 ||-----------------------------------|------------------------------------||
 ||---------------^-------------------|--------------^---------------------||
 ||o-5-4-2-5-^----1~------------------|-5-4-2-5-^----1~----------------^--o||
 ||--3-2-0-3-2~-0----0--6"....-5"....-|-3-2-0-3-2~-0----0--6"....-5"..-3~--||

 


 | . . | . . |


 

 
 ||-----------------------------------|------------------------------------||
 ||o----------------------------------|-----------------------------------o||
 ||-----------------------------------|--------------------------------^---||
 ||---------------^-------------------|--------------^-----------------2~--||
 ||o-5-4-2-5-^----1~----4"....-3"....-|-5-4-2-5-^----1~----4"....-3"..----o||
 ||--3-2-0-3-2~-0----0----------------|-3-2-0-3-2~-0----0------------------||


Important: The song above is NOT stored on the Chordie server. The original song is hosted at www.guitaretab.com. Chordie works as a search engine and provides on-the-fly formatting. Chordie does not index songs against artists'/composers' will. To remove this song please click here.

This song is displayed as text-only. Transposing and tuning is only available for chordpro-songs.
Rate #0 of 1 versions

Login - add to songbook

SHARE PAGE  



You need to log in to post comments