Guitar Tabs, Chords and Lyrics
Server problems seems to be fixed. Chordie has been experiencing problems with songs disappearing. These issues now seems to be fixed, but still verifying the fix. If you find anything strange, please email admin@chordie.com.


Kid Becomes the Dream   Aiden

 
 eb--7p0-0-8p-0-7p0-0-8p-0-7p0-0-8p-0-7p0-0-8p-0-7p0-0-8p-0-7p0-0-8p-0-|
 Bb--------------------------------------------------------------------|
 Gb--------------------------------------------------------------------| Repeat
 Db--------------------------------------------------------------------|
 Ab--------------------------------------------------------------------|
 Db--------------------------------------------------------------------|

 


 


 Guitar Two


 

 
 eb--------------------------------------------------------------------|
 Bb--------------------------------------------------------------------|
 Gb--------------------------------------------------------------------|
 Db--3----3~-5~-7----3~--5-5-5----3~-5~-7--7--7----3~-5~-7777----------|
 Ab--3----3~-5~-7----3~--5-5-5----3~-5~-7--7--7----3~-5~-7777----------|
 Db--3----3~-5~-7----3~--5-5-5----3~-5~-7--7--7----3~-5~-7777----------|

 


 


 (Just before solo guitar two short break then pick slide)


 Solo:


 


 

 
 eb--------------------------------------------------------------------|
 Bb--10-10-1010-8-6-5-5-5h6-5-----------8-6-5-6--6-5h6h7-X4-5h6h7~-----|
 Gb---------------------------5-7-7-4-5--------------------------------|
 Db--------------------------------------------------------------------|
 Ab--------------------------------------------------------------------|
 Db--------------------------------------------------------------------|
 eb--------------------------------------------------------------------|
 Bb---------------------------------------5-6-8-6-6-5h6h7-X4-5h6h7~----|
 Gb-22-2-22--4-5-7-5-4-7b8-7-5------4-5~-------------------------------|
 Db----------------------------5~-5------------------------------------|
 Ab--------------------------------------------------------------------|
 Db--------------------------------------------------------------------|

 


 


 Verse:


 Guitar One


 

 
 eb--------------------------------------------------------------------|
 Bb--------------------------------------------------------------------|
 Gb-5~-5--7--7--9--9--10-9--7--7--9--7--5--7--5--4--5------------------|
 Db-x~-x--x--x--x--x--x--x--x--x--x--x--x--x--x--x--x------------------|
 Ab-3~-3s-5--5s-7--7s-8--7--5--5--7--5--3--5--3--2--3------------------|
 Db--------------------------------------------------------------------|
 eb--------------------------------------------------------------------|
 Bb--------------------------------------------------------------------|
 Gb-5~-5--7--7--9--9--10-9--7--9--7--9--5~-----------------------------|
 Db-x~-x--x--x--x--x--x--x--x--x--x--x--x~------pickslide--------------|
 Ab-3~-3s-5--5s-7--7s-8--7--5--7--5--7--3~-----------------------------|
 Db--------------------------------------------------------------------|

 


 


 Guitar Two


 

 
 eb--------------------------------------------------------------------|
 Bb--------------------------------------------------------------------|
 Gb--------------------------------------------------------------------|
 Db--7~---10~---5~---3~------------------------------------------------|
 Ab--7~---10~---5~---3~------------------------------------------------| x2
 Db--7~---10~---5~---3~------------------------------------------------|

 


 


 Verse Part two


 Both Guitars


 

 
 eb--------------------------------------------------------------------------|
 Bb--------------------------------------------------------------------------|
 Gb------------------10-9-10----------------------10-12-10-------------------|
 Db--7-7-7--7-7-7-7--x--x-x--10-10-10-10-10-10-10-x--x--x--5-5-5-5-5-5-5-----|
 Ab--7-7-7--7-7-7-7--8--7-8--10-10-10-10-10-10-10-8--10-8--5-5-5-5-5-5-5-----|
 Db--7-7-7--7-7-7-7----------10-10-10-10-10-10-10----------5-5-5-5-5-5-5-----|
 PM-------(fast) PM----------- PM------- ---|
 eb--------------------------------------------------------------------------| x2
 Bb----------------------------------------------------------------- ---|
 Gb--10-9-10---------------10-9-7-5--------------------------------- ---|
 Db--x--x-x--3-3-3-3-3-3-3--x-x-x-x--------------------------------- ---|
 Ab--8--7-8--3-3-3-3-3-3-3--8-7-5-3--------------------------------- ---|
 Db----------3-3-3-3-3-3-3------------------------------------------ ---|
 PM----------------------------------------------------------|

 


 


 Bridge


 Guitar One


 

 
 eb--------------------------------------------------------------------|
 Bb--------------------------------------------------------------------|
 Gb--------------------------------------------------------------------|
 Db-7-777777-10--9--7h9-5-555555-10--9-7h9-3-333333-10--9-7h9-5-555555-|
 Ab-7-777777------------5-555555-----------3-333333-----------5-555555-|
 Db-7-777777---0---0----5-555555---0--0----3-333333---0--0----5-555555-|
 PM------ - - PM------ - - PM------ - -
 eb------------|
 Bb------------|
 Gb------------|
 Db-10--9--7h9-|
 Ab------------|
 Db----0--0----|

 


 [-] [-]  


 

 
 eb----------------------------------------------------------------------|
 Bb----------------------------------------------------------------------|
 Gb----------------------------------------------------------------------|
 Db-7-777777-10--9--7h9-5-555555-10--9-7h9-3-333333-10--9-7h9-5-555555-5-|
 Ab-7-777777------------5-555555-----------3-333333-----------5-555555-5-|
 Db-7-777777---0---0----5-555555---0--0----3-333333---0--0----5-555555-5-|
 PM------ - - ------ - - ------ - - ------

 


 


 Both Guitars


 

 
 eb----------|
 Bb----------|
 Gb----------|
 Db--3-5-7---|
 Ab--3-5-7---|
 Db--3-5-7---|

 


 


 Guitar One


 

 
 eb--------------------------------------------------------------------|
 Bb--------------------------------------------------------------------|
 Gb--------------------------------------------------------------------|
 Db-7-777777-10--9--7h9-5-555555-10--9-7h9-3-333333-10--9-7h9-5-555555-|
 Ab-7-777777------------5-555555-----------3-333333-----------5-555555-|
 Db-7-777777---0---0----5-555555---0--0----3-333333---0--0----5-555555-|
 PM------ - - PM------ - - PM------ - -
 eb------------|
 Bb------------|
 Gb------------|
 Db-10--9--7h9-|
 Ab------------|
 Db----0--0----|

 


 [-] [-]  


 Guitar two


 

 
 eb---------------------------------------------------------------------|
 Bb---------------------------------------------------------------------|
 Gb---------------------------------------------------------------------|
 Db-7-777777-10--9--10h12-5-555555-10--9-10h12---3-333333---10--9-10h12-|
 Ab-7-777777--------------5-555555---------------3-333333---------------|
 Db-7-777777---0---0------5-555555---0--0--------3-333333-----0--0------|
 PM------ - - PM------ - - PM------ - -
 eb---------------------------| ------------|
 Bb---------------------------| ------------|
 Gb---------------------------| ------------|
 Db------5-555555-10--9--10h12|Second Time -5-555555-5-|
 Ab------5-555555-------------| -5-555555-5-|
 Db------5-555555-------------| -5-555555-5-|
 PM---------|

 


 


 Song Order


 Intro


 Solo


 Verse


 Verse pt2


 Bridge(one guitar one)


 Bridge( both Guitars


 Solo


 Bridge (one Guitar)


 


 [End]Both Guitars


 

 
 eb----------|
 Bb----------|
 Gb----------|
 Db--3-5-7---|
 Ab--3-5-7---|
 Db--3-5-7---|


Important: The song above is NOT stored on the Chordie server. The original song is hosted at www.guitaretab.com. Chordie works as a search engine and provides on-the-fly formatting. Chordie does not index songs against artists'/composers' will. To remove this song please click here.

This song is displayed as text-only. Transposing and tuning is only available for chordpro-songs.
Rate #1 of 2 versions

Login - add to songbook

SHARE PAGE  




You need to log in to post comments