Guitar Tabs, Chords and Lyrics
Major upgrade!! After one year development the new version of Chordie is now online! Please give feedback.


She Was Mine  AJ Rafael

A.J. RAFAEL
Intro : (repeat 2 times)
[Fmaj7] [F9] [Bbmaj7] [Bbm7]  
 
 1st -----8-----------------------------------------------------------------|
 2nd -/10---8-10-10s11-10-------------------------8-------------------------|
 3rd ---------------------10-7-10-6------/10-8-10---10-----10---------------|
 4th -------------------------------/8-7---------------/12----10-11---------|
 5th -----------------------------------------------------------------------|
 6th -----------------------------------------------------------------------|

Verse :
So I h[Fmaj7]opped on a train three in [F9]the afternoon
I don't [Bbmaj7]know when I'm coming back, but I [Bbm7]hope that it's soon
See, I never [Fmaj7]thought (I never thought)
That I'd [F9]have to leave your [Bbmaj7]side (your [Bbm7]side)
It's only phy[Fmaj7]sically but know that you will [F9]be on my mind
Twenty-four [Bbmaj7]hours at a ti[Bbm7]me
Cause in my[Fmaj7] ey---[F9]es, you were [Bbmaj7]mine (you were [Bbm7]mine)
Chorus :
[Gm7]No matter where you go, [Am7]I won't be very far
[Bbmaj7]Cause in my head I'll be [D9]right there where you are
[Gm7]Cause love has no d[C9]istance baby
[Am7]Love, love has no d[D9]istance baby
[Gm7]No, not when it [C9]comes to you and me
Reintro : (repeat 2 times)
[Fmaj7] [F9] [Bbmaj7] [Bbm7]  
 
 1st -----8-----------------------------------------------------------------|
 2nd -/10---8-10-10s11-10-------------------------8-------------------------|
 3rd ---------------------10-7-10-6------/10-8-10---10-----10---------------|
 4th -------------------------------/8-7---------------/12----10-11---------|
 5th -----------------------------------------------------------------------|
 6th -----------------------------------------------------------------------|

Verse :
See, she w[Fmaj7]rote me a letter, said the [F9]weather wasn't better
But she s[Bbmaj7]aid that she was doing [Bbm7]fine
"I want to s[Fmaj7]ee you face to face", that's what she [F9]wrote to me that
day
And I k[Bbmaj7]new that it was all a [Bbm7]sign
So I w[Fmaj7]rote back with a song, promised [F9]it won't be too long
Wanna m[Bbmaj7]ake up for all our lost [Bbm7]time
Cause in my[Fmaj7] ey---[F9]es, you were [Bbmaj7]mine (you were [Bbm7]mine)
Chorus :
[Gm7]No matter where you go, [Am7]I won't be very far
[Bbmaj7]Cause in my head I'll be [D9]right there where you are
[Gm7]Cause love has no d[C9]istance baby
[Am7]Love, love has no d[D9]istance baby
[Gm7]No, not when it [C9]comes to you and me
Interlude : (repeat 2 times)
[Fmaj7] [F9] [Bbmaj7] [Bbm7]  
 
 1st -----8----------------------------------8----8h10-8-8-10---------------|
 2nd -/10---8-10-10s11-10----------------/10---10-------------8h10-6---6----|
 3rd ---------------------10-7-10-6----------------------------------7------|
 4th -------------------------------/8-7------------------------------------|
 5th -----------------------------------------------------------------------|
 6th -----------------------------------------------------------------------|

Verse : (strum once)
So I'm [Fmaj7]going through these boxes, my [F9]life's gone off track
It's [Bbmaj7]been three years, she [Bbm7]hasn't written back
But in my[Fmaj7] ey---[F9]es, she's still [Bbmaj7]mine[Bbm7]
And I [Fmaj7]know it sounds so stupid to be [F9]waiting this long
But I[Bbmaj7]'m still in love, and I [Bbm7]know I'm not wrong
Cause in my[Fmaj7] ey---[F9]es, she was [Bbmaj7]mine[Bbm7]
Chorus :
[Gm7]No matter where you go, [Am7]I won't be very far
[Bbmaj7]Cause in my head I'll be [D9]right there where you are
[Gm7]Cause love has no d[C9]istance baby
[Am7]Love, love has no d[D9]istance baby
[Gm7]No, not when it [C9]comes to you and me
[Gm7]No matter where you go, [Am7]I won't be very far
[Bbmaj7]Cause in my head I'll be [D9]right there where you are
[Gm7]Cause love has no d[C9]istance baby
[Am7]Love, love has no d[D9]istance baby
[Gm7]No, not when it [C9]comes to you and me
Outro : (repeat 2 times)
[Fmaj7] [F9] [Bbmaj7] [Bbm7]  
 
 1st -----8-----------------------------------------------------------------|
 2nd -/10---8-10-10s11-10-------------------------8-------------------------|
 3rd ---------------------10-7-10-6------/10-8-10---10-----10---------------|
 4th -------------------------------/8-7---------------/12----10-11---------|
 5th -----------------------------------------------------------------------|
 6th -----------------------------------------------------------------------|


Important: The song above is NOT stored on the Chordie server. The original song is hosted at www.guitaretab.com. Chordie works as a search engine and provides on-the-fly formatting. Chordie does not index songs against artists'/composers' will. To remove this song please click here.

Text color:
Chord color:
Chord grids: 
Font size:    
Page size: 

Am7 Bbm7 Bbmaj7 C9 D9 F9 Fmaj7 Gm7
Rate #1 of 7 versions

Jango Player

Login - add to songbook

SHARE PAGE  




You need to log in to post comments