Guitar Tabs, Chords and Lyrics
Server problems seems to be fixed. Chordie has been experiencing problems with songs disappearing. These issues now seems to be fixed, but still verifying the fix. If you find anything strange, please email admin@chordie.com.


About Farewell  Alela Diane

J'ai mis "novice" en difficulté, il n'y pas d'accord compliqué mais
l'enchaînement de l'intro avec les couplets et refrains n'est pas si
simple...
Amusez-vous bien !
[Miam]  
About Farewell - Alela Diane
Capo 7
Intro x2
[Am]  
 
 e||-3---3---------|-0---0---------|-----0---------|-------------|
 B||---------1-----|---------1-----|-3-------3-----|-1-----1-----|
 G||-------------2-|-------------2-|-------------2-|-------------|
 D||---2-------2---|---2-------2---|---2-------2---|----2--------|
 A||-0-----0-------|-0-----0-------|-0-----0-------|-0--------0--|
 E||---------------|---------------|---------------|-------------|

Couplet
[F] [Am]  
 
 e||-----------------|-----------------|-----------------|-----------------|
 B||-------1-------1-|-------1-------1-|-------1-------1-|-------1-------1-|
 G||---2-------2-----|---2-------2-----|---2-------2-----|---2-------2-----|
 D||-----3-------3---|-----3-------3---|-----2-------2---|-----2-------2---|
 A||-3-------3-------|-3-------3-------|-0-------0-------|-0-------0-------|
 E||-----------------|-----------------|-----------------|-----------------|

It is plain to see that I have one foot out the door
[F] [Am]  
 
 e||-----------------|-----------------|-----------------|-----------------|
 B||-------1-------1-|-------1-------1-|-------1-------1-|-------1-------1-|
 G||---2-------2-----|---2-------2-----|---2-------2-----|---2-------2-----|
 D||-----3-------3---|-----3-------3---|-----2-------2---|-----2-------2---|
 A||-3-------3-------|-3-------3-------|-0-------0-------|-0-------0-------|
 E||-----------------|-----------------|-----------------|-----------------|

And I know that your dear heart is telling you to run Deep down
G Intro x2
 
 e||------------------|-----------------|-- --|
 B||-------3-------3--|-------3-------3-|-- --|
 G||---0--------------|---0-------0-----|-- --|
 D||-----0-------0----|-----0-------0---|-- --|
 A||---------0^2------|-----------------|-- --|
 E||-3----------------|-3-------3-------|-- --|

somewhere, Deep down somewhere
Refrain
[C] [G]  
 
 e||-----------------|-----------------|-----------------|-----------------|
 B||-------1-------1-|-------1-------1-|-------3-------3-|-------3-------3-|
 G||---0-------0-----|---0-------0-----|---0-------------|---0-------0-----|
 D||-----2-------2---|-----2-------2---|-----0-------0---|-----0-------0---|
 A||-3-------3-------|-3-------3-------|---------0^2-----|---------2-------|
 E||-----------------|-----------------|-3---------------|-3---------------|

I heard somebody say that the
[F] [G] [F]  
 
 e||-----------------|-------0-------0-|-------0-------0-|-------0-------0-|
 B||-------1-------3-|---1-------1-----|---1-------1-----|---1-------1-----|
 G||---2-------0-----|-----2-------2---|-----2-------2---|-----2-------2---|
 D||-----3-------0---|-3-------3-------|-3-------3-------|-3-------3-------|
 A||-3---------------|-----------------|-----------------|-----------------|
 E||---------3-------|-----------------|-----------------|-----------------|
 brigh-------test light

[C] [G] [F]  
 
 e||-------0-------0-|-----------------|-------0-------0-|-------0-------0-|
 B||---1-------1-----|-------1-------3-|---1-------1-----|---1-------1-----|
 G||-----2-------2---|---0-------0-----|-----2-------2---|-----2-------2---|
 D||-3-------3-------|-----2-------0---|-3-------3-------|-3-------3-------|
 A||-----------------|-3---------------|-----------------|-----------------|
 E||-----------------|---------3-------|-----------------|-----------------|

cast the biggest shadows
[C] [G] [F]  
 
 e||-------0-------0-|-------0-------0-|-----------------|-------0-------0-|
 B||---1-------1-----|---1-------1-----|-------1-------3-|---1-------1-----|
 G||-----2-------2---|-----2-------2---|---0-------0-----|-----2-------2---|
 D||-3-------3-------|-3-------3-------|-----2-------0---|-3-------3-------|
 A||-----------------|-----------------|-3---------------|-----------------|
 E||-----------------|-----------------|---------3-------|-----------------|

So, honey, I've got to let you go
Intro x2
 
 e||-------0-------0-|-------0-------0-|-------0-------0-|-- --|
 B||---1-------1-----|---1-------1-----|---1-------1-----|-- --|
 G||-----2-------2---|-----2-------2---|-----2-------2---|-- --|
 D||-3-------3-------|-3-------3-------|-3-------3-------|-- --|
 A||-----------------|-----------------|-----------------|-- --|
 E||-----------------|-----------------|-----------------|-- --|


Important: The song above is NOT stored on the Chordie server. The original song is hosted at www.guitaretab.com. Chordie works as a search engine and provides on-the-fly formatting. Chordie does not index songs against artists'/composers' will. To remove this song please click here.

Text color:
Chord color:
Chord grids: 
Font size:    
Page size: 

Am C F G
Rate #1 of 2 versions

Jango Player

Login - add to songbook

SHARE PAGE  




You need to log in to post comments