Guitar Tabs, Chords and Lyrics
Server problems seems to be fixed. Chordie has been experiencing problems with songs disappearing. These issues now seems to be fixed, but still verifying the fix. If you find anything strange, please email admin@chordie.com.


Lenguaje de amor  Alex Campos

Primer sencillo del nuevo album de Alex Campos
"Lenguaje de Amor 2010"
(La cancion tiene el mismo nombre del album)
Intro: //F - G//
Punteo:
 
 e)|-13-13-13-12--------------------------------------|
 B)|------------15-13-12-12-11------------------13-12-|
 G)|--------------------------13-11-10-10-10-9-7------|
 D)|--------------------------------------------------|
 A)|--------------------------------------------------|
 E)|--------------------------------------------------|

1er Verso:
[F] Dej[C]a que te e[G]xplique lo que estoy viviendo[F], es [C]la realid[G]ad,
[F] Dej[C]a que la [G]luz se mezcle con el viento,[F] no t[C]e arrepent[G]irás,
Es tan si[F]mple y real, tu mi [G]amor lo veras?
CORO:
Su[C] amor, el [F]tibio amanecer del s[Am]ol, [G]poema que me enamoro,[C]
El pé[Am]talo de aquella flo[F]r, [G]la letra de esta mi canción;[C]
Su[Am] amor, me encontr[F]ó, [G]veo que se trata de Dios.
Intro: //F - G//
Punteo:
 
 e)|-13-13-13-12--------------------------------------|
 B)|------------15-13-12-12-11------------------13-12-|
 G)|--------------------------13-11-10-10-10-9-7------|
 D)|--------------------------------------------------|
 A)|--------------------------------------------------|
 E)|--------------------------------------------------|

[F] Deja[C] que la[G] risa debilite el miedo[F], vu[C]elve a canta[G]r,
[F] Desn[C]uda el a[G]lma, no te estés mintiendo,[F] se[C] tú la verdad[G],
[F] Es tan simple y real, tu mi a[G]mor lo veras,
Grande [F]es como el mar, tú lo[G] vas a notar?
CORO:
Su[C] amor, el [F]tibio amanecer del s[Am]ol, [G]poema que me enamoro,[C]
El pé[Am]talo de aquella flo[F]r, [G]la letra de esta mi canción;[C]
Su[Am] amor, me encontr[F]ó, [G] siento su lenguaje de amor,[C]
La[Am] pasión, el perdó[F]n, [G] encuentro que se trata de Dios.
SOLO:
 
 e)|--4-4-4-4-3-1-4-3-----------3-4-3-1-------------16-17-18-|
 B)|------------------------------------3-4-6-8-9-10---------|
 G)|---------------------------------------------------------|
 D)|------------------6-5-3-0-5------------------------------|
 A)|---------------------------------------------------------|
 E)|---------------------------------------------------------|

(este punteo posiblemente tenga algunos errores pequeños)
[C]Oh si m[Am]añana no saliera el so[F]l,[G] no importa su amor me abrigo,[C]
Si el c[Am]ielo pierde su esplend[F]or,[G] tú sigues siendo
el brillo de amor,[C]
Su am[Am]or, me e[F]ncontró, sie[G]nto su lenguaje de amor,
La pa[Am]sión, el p[F]erdón, enc[G]uentro que se trata de Dios,
(sigue misma secuencia y termina en C)
Veo que se trata de Dios, siento su lenguaje de amor.[C]
(El solo al final es una improvisación)
Saludos
Espero les sirva!
Enviado por Leonardo

Important: The song above is NOT stored on the Chordie server. The original song is hosted at www.guitaretab.com. Chordie works as a search engine and provides on-the-fly formatting. Chordie does not index songs against artists'/composers' will. To remove this song please click here.

Text color:
Chord color:
Chord grids: 
Font size:    
Page size: 

Am C F G
Rate #2 of 4 versions

Login - add to songbook

SHARE PAGE  



You need to log in to post comments