Guitar Tabs, Chords and Lyrics
Major upgrade!! After one year development the new version of Chordie is now online! Please give feedback.


All My Days   Alexi Murdoch

 
 ----------------*-----------------*
 ----------------*-----------------*
 --2---2---2---2-*--4---4---4---4--*repeat [1]
 0---0---0---0---*0---0---0---0---0*a few times
 ----------------*-----------------*
 -0-0-0-0-0-0-0-0*-0-0-0-0-0-0-0-0-*

 


 


 h h h h h h


 

 
 --------------------------------------------------------|
 ----------3-----------3---------3---------------3----3--|
 --2---2-------2---2-------2-2-------2-----0-02----2-----|
 04--0---04--0---04--0---04----0---0---0-04----0-----0---|
 --------------------------------------------------------|
 ---0-0-0---0-0-0---0-0-0---0-0-0-0-0-0-0---0---0-0-0--0-|

 


 


 h h h h fast h


 

 
 ---------------------------------------------------------|
 --------3----3---------3-----------------3--------3------|
 --0-02----2------0-02----2-4---0------------0-02----2----|
 04----0-----0--04----0-------2---2-244-0--04----0-----0--|
 ---------------------------------------------------------|
 ---0---0-0-0--0---0---0-0-0-0-0-0-0---0-0--------0-0-0-0-|

 


 


 h h h h [ 2 ]


 

 
 -----------------------------------------#------#
 --------3----3---------3-----------------#3-----#
 --0-02----2------0-02----2-4---0---------#--2---#repeat
 04----0-----0--04----0-------2---2-244-0-#----0-#[2] 3 more
 -----------------------------------------#------#times
 ---0---0-0-0--0---0---0-0-0-0-0-0-0---0-0#-0-0-0#

 


 


 Verse


 


 ... all of my days, all of my days...


 h h


 

 
 -----------------------------------------------------------|
 -----------------------3-----------3-----3-----------3-----|
 ---2--2---2--2---0-0------2----0-----0---------0-02----2---|
 0----0--------------0------0-0---0-----0---0-04----0-----0-|
 -------3----3-2---2----------------------------------------|
 0-------------------0--------5-----5-----5-0--------0-0-0--|

 


 


 Repeat those themes until


 


 as the days keep turning into night


 [3] 


 

 
 -----------------#----------------#
 -----------------#---------3-----3#
 ---2---2---2---2-#-----------2----#
 -0---0---0---0---#---0-02------0--# repeat [3] leading
 ----------------0#-04----0--------# into next verse
 -----------------#----------------#
 5-5-2-2-5-5-2-2-0#--------0-0-0-0-#

 


 t t t t


 


 Continue verses with the occasional alteration:


 ...look around me


 ...confound me


 h h h


 

 
 ------------------------------|
 ---------3-----3------------3-|
 2----0-----0---------0--02----|
 -0-0---0-----0---0-04?04--0---|
 ------------------------------|
 ---5-----5-----5-0--------0---|

 


 


 until the solo between verses 3 and 4 which starts with last two lines of the intro then


 


 Refrain


 h h h


 

 







 


 


 Next verse as above verse until lead out with


 


 even breathing feels alright


 

 
 --------------------------------#
 -------------------3-----3------#
 ---0-----0-----------2-----2----#repeat these two themes
 -----4-----4-----0-----0-----0-0#according to the song
 -2-----2-----2-2----------------#
 2-2-2-2-2-2-2-2-0-0-0-0-0-0-0-0-#


Important: The song above is NOT stored on the Chordie server. The original song is hosted at www.guitaretab.com. Chordie works as a search engine and provides on-the-fly formatting. Chordie does not index songs against artists'/composers' will. To remove this song please click here.

This song is displayed as text-only. Transposing and tuning is only available for chordpro-songs.
Rate #3 of 5 versions

Jango Player

Login - add to songbook

SHARE PAGE  




You need to log in to post comments