Guitar Tabs, Chords and Lyrics
Server problems seems to be fixed. Chordie has been experiencing problems with songs disappearing. These issues now seems to be fixed, but still verifying the fix. If you find anything strange, please email admin@chordie.com.


Pick Up the Bones  Alice Cooper

PICK UP THE BONES
As recorded by Alice Cooper
(From the 2009 Album BRUTAL PLANET)
Transcribed by Alex Harland
Please note that verses 3 and 4 are consecutive, there is no break in the vocals.
Gtr I (Db Gb B E Ab Db) - 'Acoustic Guitar (C#)'
Gtr II (E A D G B E) - 'Lead Guitar'
Gtr III (E A D G B E) - 'Vocals'
Gtr IV (E A D G B E) - 'Rhythm Guitar'
Intro
Q=86
[4/4] Gtr I
W W W E E E E E E E E
 
 |----------|----------|----------|------------------|
 |----------|----------|----------|------------------|
 |----------|----------|----------|-----0-------0----|
 |----------|----------|----------|---4---4---4---4--|
 |----------|----------|----------|-2-------0--------|
 |----------|----------|----------|------------------|

[E] [E] [E] [B] [E] [E] [E] [E] [E] [E] [E] [E] [E] [E] [E] [E] [B] [E] [E] [E] [E] [E] [E] [E] [E] [E]  
 
 |--------------|-----------------|---------------|-------------------|
 |--------------|-----------------|---------------|-------------------|
 |-----0--------|-----0-------0---|-----0---------|-------0-------0---|
 |---4---4------|---4---4---4---4-|---4---4-------|-----4---4---4---4-|
 |--------------|-2-------0-------|-------------0-|--2--------0-------|
 |-0------------|-----------------|-0-------------|-------------------|

|
| Gtr II
| <
| W W H H +H H
 
 |--------------|-----------------|---------8-----|-(8)-------7-------|
 |--------------|-----------------|---------------|-------------------|
 |--------------|-----------------|---------------|-------------------|
 |--------------|-----------------|---------------|-------------------|
 |--------------|-----------------|---------------|-------------------|
 |--------------|-----------------|---------------|-------------------|

Verse 1
[E] [E] [E] [B] [E] [E] [E] [E] [E] [E] [E] [E] [E] [E] [E] [E] [B] [E] [E] [E] [E] [E] [E] [E] [E] [E]  
 
 |--------------|-----------------|-----------------||-------------------|
 |--------------|-----------------|-----------------||-------------------|
 |-----0--------|-----0-------0---|-----0-----------||-------0-------0---|
 |---4---4------|---4---4---4---4-|---4---4---------||-----4---4---4---4-|
 |--------------|-2-------0-------|-----------------||--2--------0-------|
 |-0------------|-----------------|-0---------------||-------------------|

|
| W H H W +W
 
 |-5------------|-8-------7-------|-5---------------||-(5)---------------|
 |--------------|-----------------|-----------------||-------------------|
 |--------------|-----------------|-----------------||-------------------|
 |--------------|-----------------|-----------------||-------------------|
 |--------------|-----------------|-----------------||-------------------|
 |--------------|-----------------|-----------------||-------------------|

|
| Gtr III
| W W H E E E E E E E E E E E E
 
 |--------------|-----------------|-----------------||-------------------|
 |--------------|-----------------|-----------------||-------------------|
 |--------------|-----------------|-----------0-0---||--0--0-0---0-0-0---|
 |--------------|-----------------|---------------3-||---------3-------3-|
 |--------------|-----------------|-----------------||-------------------|
 |--------------|-----------------|-----------------||-------------------|

[E] [E] [E] [B] [E] [E] [E] [E] [E] [E] [E] [E] [E] [E] [E] [E] [B] [E] [E] [E] [E] [E] [E] [E] [E] [E]  
 
 |-----------------|-------------------|------------------|-------------------|
 |-----------------|-------------------|------------------|-------------------|
 |-------0---------|-------0-------0---|-------0----------|-------0-------0---|
 |-----4---4-------|-----4---4---4---4-|-----4---4--------|-----4---4---4---4-|
 |---------------0-|--2--------0-------|----------------0-|--2--------0-------|
 |--0--------------|-------------------|--0---------------|-------------------|

|
| +W +W +W +W
 
 |-(5)-------------|-(5)---------------|-(5)--------------|-(5)---------------|
 |-----------------|-------------------|------------------|-------------------|
 |-----------------|-------------------|------------------|-------------------|
 |-----------------|-------------------|------------------|-------------------|
 |-----------------|-------------------|------------------|-------------------|
 |-----------------|-------------------|------------------|-------------------|

|
| E E E E H E E E E Q E E E E E E E Q E Q E E Q E E
 
 |-----------------|-------------------|------------------|-------------------|
 |-----------------|-------------------|------------------|-------------------|
 |--0--0---0-------|--0--0-0---0---0---|--0--0---0--------|--0----0-0-0---0---|
 |-------3---------|---------3-------3-|-------3--------3-|-----------------3-|
 |-----------------|-------------------|------------------|-------------------|
 |-----------------|-------------------|------------------|-------------------|

[E] [E] [E] [B] [E] [E] [E] [E] [E] [E] [E] [E] [E]  
 
 |------------------|-----------------|
 |------------------|-----------------|
 |-------0----------|-----0-------0---|
 |-----4---4--------|---4---4---4---4-|
 |------------------|-2-------0-------|
 |--0---------------|-----------------|

|
| +W W
 
 |-(5)--------------|-----------------|
 |------------------|-----------------|
 |------------------|-----------------|
 |------------------|-----------------|
 |------------------|-----------------|
 |------------------|-----------------|

|
| E E E Q E E E E E E E Q E E
 
 |------------------|-----------------|
 |------------------|-----------------|
 |--0--0---0----0-0-|-0-0-0-0-0---0---|
 |-------3----------|---------------3-|
 |------------------|-----------------|
 |------------------|-----------------|

Guitar Break
[E] [E] [E] [B] [E] [E] [E] [E] [E] [E] [E] [E] [E]  
 
 |------------------||--------------------------|
 |------------------||--------------------------|
 |-----0------------||---------0----------0-----|
 |---4---4----------||-----4-------4---4-----4--|
 |------------------||-2-------------0----------|
 |-0----------------||--------------------------|

|
| H E E E E E. S H +Q
 
 |------------------||--------------------------|
 |------------------||-------6------------------|
 |--------------5-7-||-7b9-----7b9-------(7)----|
 |-----------7------||--------------------------|
 |------------------||--------------------------|
 |------------------||--------------------------|

|
| E E E Q Q. W
 
 |------------------||--------------------------|
 |------------------||--------------------------|
 |-0-0---0----------||--------------------------|
 |-----3------------||--------------------------|
 |------------------||--------------------------|
 |------------------||--------------------------|

[E] [E] [E] [B] [E] [E] [E] [E] [E] [E] [E] [E] [E]  
 
 |--------------------------------|-------------------|
 |--------------------------------|-------------------|
 |-----0--------------------------|-------0-------0---|
 |---4---4------------------------|-----4---4---4---4-|
 |--------------------------------|--2--------0-------|
 |-0------------------------------|-------------------|

|
| H S S S S S S S S H. Q
 
 |--------------------------------|-------------------|
 |--------------------------------|-------------------|
 |---------12-9-------------------|-------------------|
 |--------------12-10-12-10-------|-------------------|
 |--------------------------12-10-|-12----------------|
 |--------------------------------|-------------------|

|
| W W
 
 |--------------------------------|-------------------|
 |--------------------------------|-------------------|
 |--------------------------------|-------------------|
 |--------------------------------|-------------------|
 |--------------------------------|-------------------|
 |--------------------------------|-------------------|

Verse 2
E E E E +Q. E E E E E E E E E
 
 |----------------------||-----------------|
 |----------------------||-----------------|
 |------0---------------||-----0-------0---|
 |----4------4-(4)------||---4---4---4---4-|
 |----------------------||-2-------0-------|
 |-0--------------------||-----------------|

|
| Q E E +H W
 
 |------8b10-8-(8)------||-----------------|
 |----------------------||-----------------|
 |----------------------||-----------------|
 |----------------------||-----------------|
 |----------------------||-----------------|
 |----------------------||-----------------|

|
| H. E E Q E E Q E E
 
 |----------------------||-----------------|
 |----------------------||-----------------|
 |------------------0---||-0---0---0---0---|
 |--------------------3-||-------3-------3-|
 |----------------------||-----------------|
 |----------------------||-----------------|

[E] [E] [E] [B] [E] [E] [E] [E] [E] [E] [E] [E] [E]  
 
 |----------------|-----------------|
 |----------------|-----------------|
 |-----0----------|-----0-------0---|
 |---4---4--------|---4---4---4---4-|
 |----------------|-2-------0-------|
 |-0--------------|-----------------|

|
| W W
 
 |----------------|-----------------|
 |----------------|-----------------|
 |----------------|-----------------|
 |----------------|-----------------|
 |----------------|-----------------|
 |----------------|-----------------|

|
| E E E Q E E E Q E E Q E E
 
 |----------------|-----------------|
 |----------------|-----------------|
 |-0-0---0----0---|-0---0---0---0---|
 |-----3--------3-|-------3-------3-|
 |----------------|-----------------|
 |----------------|-----------------|

[E] [E] [E] [B] [E] [E] [E] [E] [E] [E] [E] [E] [E]  
 
 |-----------------------|---------------------|
 |-----------------------|---------------------|
 |-----0-----------------|---------0-------0---|
 |---4---4---------------|-------4---4---4---4-|
 |-----------------------|--2----------0-------|
 |-0---------------------|---------------------|

|
| H E E E E W
 
 |-----------------------|---------------------|
 |-----------------------|---------------------|
 |-----------------12-14-|-12b14---------------|
 |-----------12b14-------|---------------------|
 |-----------------------|---------------------|
 |-----------------------|---------------------|

|
| E E E Q E E E Q E E Q E E
 
 |-----------------------|---------------------|
 |-----------------------|---------------------|
 |-0-0---0----------0----|--0------0---0---0---|
 |-----3---------------3-|-----------3-------3-|
 |-----------------------|---------------------|
 |-----------------------|---------------------|

E E E E +Q. E E E E E E E E E
 
 |-------------------------|---------------------------------|
 |-------------------------|---------------------------------|
 |-----0-------------------|----------0---------------0------|
 |---4---4-(4)-------------|-------4-------4-------4-------4-|
 |-------------------------|--2---------------0--------------|
 |-0-----------------------|---------------------------------|

|
| H E E E E Q Q Q Q
 
 |-------------------15-17-|-15b17---15b17---15b17---15b17---|
 |-------------15b17-------|---------------------------------|
 |-------------------------|---------------------------------|
 |-------------------------|---------------------------------|
 |-------------------------|---------------------------------|
 |-------------------------|---------------------------------|

|
| E E E Q E E E Q E E Q E E
 
 |-------------------------|---------------------------------|
 |-------------------------|---------------------------------|
 |-0-0---0------------0----|--0-------0-------0-------0------|
 |-----3-----------------3-|---------------3---------------3-|
 |-------------------------|---------------------------------|
 |-------------------------|---------------------------------|

Chorus
E E E E +Q. E E E E E E E E E
 
 |---------------------------------||---------------------|
 |---------------------------------||---------------------|
 |----------0----------------------||-----4----------4----|
 |-------4-------4-(4)-------------||---4---4----4------4-|
 |---------------------------------||-2-------2-----------|
 |--0------------------------------||---------------------|

|
| Gtr IV
| Q Q H E E E E E E E E
 
 |-15b17---15b17---15b17-----------||---------------------|
 |---------------------------------||---------------------|
 |---------------------------------||-6-6-6-6-6--6---6--6-|
 |---------------------------------||-6-6-6-6-6--6---6--6-|
 |---------------------------------||-4-4-4-4-4--4---4--4-|
 |---------------------------------||---------------------|

|
| E E E Q +E +E E E E E Q +E +E E
 
 |---------------------------------||-3-3-1-3---(3)-(3)---|
 |---------------------------------||-------------------1-|
 |--0----0-------0-------(0)-(0)---||---------------------|
 |----------3----------------------||---------------------|
 |---------------------------------||---------------------|
 |---------------------------------||---------------------|

[E] [E] [E] [E] [E] [E] [E] [E] [E] [E] [E] [E] [E] [E] [E] [E] [E] [E] [E] [E] [E] [E] [E] [E] [E] [E] [E] [E] [E] [E] [E] [E]  
 
 |-------------------|-----------------|---------------------|-----------------|
 |-------------------|-----------------|---------------------|-----------------|
 |-----4-------4-----|-----4-------4---|-----4-----------4---|-----4-------4---|
 |---4---4---4----4--|---4---4---4---4-|---4---4-------4---4-|---4---4---4---4-|
 |-2-------2---------|-2-------2-------|-2----------2--------|-2-------2-------|
 |-------------------|-----------------|---------------------|-----------------|

|
| E E E E E E E E E E E E E E E E E E E E E E E E E E E E E E E E
 
 |-------------------|-----------------|---------------------|-----------------|
 |-------------------|-----------------|---------------------|-----------------|
 |-------------------|-----------------|-6-6-6-6----6--6-6-6-|-6-6-6-6-6-6-6-6-|
 |-2-2-2-2-2-2-2--2--|-4-4-4-4-4-4-4-4-|-6-6-6-6----6--6-6-6-|-6-6-6-6-6-6-6-6-|
 |-2-2-2-2-2-2-2--2--|-4-4-4-4-4-4-4-4-|-4-4-4-4----4--4-4-4-|-4-4-4-4-4-4-4-4-|
 |-0-0-0-0-0-0-0--0--|-2-2-2-2-2-2-2-2-|---------------------|-----------------|

|
| E E E Q Q +E E E E Q E E E E E E E +H E E E H E
 
 |-3-3-1-3-----------|-3-3-1-3-----3-3-|-3-3-6---------------|-3-3-1-3---------|
 |-----------1---(1)-|-----------------|-------6b8-(6)-------|---------------1-|
 |-------------------|-----------------|---------------------|-----------------|
 |-------------------|-----------------|---------------------|-----------------|
 |-------------------|-----------------|---------------------|-----------------|
 |-------------------|-----------------|---------------------|-----------------|

Interlude
[E] [E] [E] [E] [E] [E] [E] [E] [E] [E] [E] [E] [E] [E] [E] [E] [E] [E] [E] [E] [E] [E] [E] [E] [E] [E] [E] [E] [E] [E] [E] [E]  
 
 |-------------------|-----------------|---------------------||-----------------|
 |-------------------|-----------------|---------------------||-----------------|
 |-----4-------4-----|-----4-------4---|-----4-----------4---||-----0-------0---|
 |---4---4---4----4--|---4---4---4---4-|---4---4-------4---4-||---4---4---4---4-|
 |-2-------2---------|-2-------2-------|-2----------2--------||-2-------0-------|
 |-------------------|-----------------|---------------------||-----------------|

|
| E E E E E E E E E E E E E E E E E E E E E E E E W
 
 |-------------------|-----------------|---------------------||-----------------|
 |-------------------|-----------------|---------------------||-----------------|
 |-------------------|-----------------|-6-6-6-6----6--6-6-6-||-6---------------|
 |-2-2-2-2-2-2-2--2--|-4-4-4-4-4-4-4-4-|-6-6-6-6----6--6-6-6-||-6---------------|
 |-2-2-2-2-2-2-2--2--|-4-4-4-4-4-4-4-4-|-4-4-4-4----4--4-4-4-||-4---------------|
 |-0-0-0-0-0-0-0--0--|-2-2-2-2-2-2-2-2-|---------------------||-----------------|

|
| E E E H +E E E E Q Q E E E E E +H W
 
 |-3-3-1-3-------(3)-|-3-3-1-3-------3-|-3-3-6---------------||-----------------|
 |-------------------|-----------------|-------6b8-(6)-------||-----------------|
 |-------------------|-----------------|---------------------||-----------------|
 |-------------------|-----------------|---------------------||-----------------|
 |-------------------|-----------------|---------------------||-----------------|
 |-------------------|-----------------|---------------------||-----------------|

[E] [E] [E] [B] [E] [E] [E] [E] [E] [E] [E] [E] [E]  
 
 |------------------------|--------------------|
 |------------------------|--------------------|
 |-----0------------------|-------0--------0---|
 |---4---4----------------|-----4----4---4---4-|
 |------------------------|--2---------0-------|
 |-0----------------------|--------------------|

|
| Gtr II
| ~~
| H E S S Q +Q H.
 
 |-----------10-12-8b10r==|=(8)---5------------|
 |------------------------|--------------------|
 |------------------------|--------------------|
 |------------------------|--------------------|
 |------------------------|--------------------|
 |------------------------|--------------------|

|
| W W
 
 |------------------------|--------------------|
 |------------------------|--------------------|
 |------------------------|--------------------|
 |------------------------|--------------------|
 |------------------------|--------------------|
 |------------------------|--------------------|

Verse 3
E E E E +Q. E E E E E E E E E
 
 |-------------------||------------------|
 |-------------------||------------------|
 |-----0-------------||-----0-------0----|
 |---4---4-(4)-------||---4---4---4---4--|
 |-------------------||-2-------0--------|
 |-0-----------------||------------------|

|
| E E E E S S Q. W
 
 |-------------------||------------------|
 |-------3--5s3-5----||------------------|
 |-----5-------------||------------------|
 |---7---------------||------------------|
 |-------------------||------------------|
 |-------------------||------------------|

|
| H Q E E Q E E Q E E
 
 |-------------------||------------------|
 |-------------------||------------------|
 |--------------0----||-0---0---0---0----|
 |-----------------3-||-------3-------3--|
 |-------------------||------------------|
 |-------------------||------------------|

E E E H E E E E E E E E E E E E E +Q. E E E E E E E E E
 
 |----------------|-----------------|-------------------|-----------------|
 |----------------|-----------------|-------------------|-----------------|
 |-----0----------|-----0-------0---|-----0-------------|-----0-------0---|
 |---4---4--------|---4---4---4---4-|---4---4-(4)-------|---4---4---4---4-|
 |----------------|-2-------0-------|-------------------|-2-------0-------|
 |-0--------------|-----------------|-0-----------------|-----------------|

|
| W W W W
 
 |----------------|-----------------|-------------------|-----------------|
 |----------------|-----------------|-------------------|-----------------|
 |----------------|-----------------|-------------------|-----------------|
 |----------------|-----------------|-------------------|-----------------|
 |----------------|-----------------|-------------------|-----------------|
 |----------------|-----------------|-------------------|-----------------|

|
| E E E Q E E E Q E E E E Q E E E Q E E E E E E E Q Q
 
 |----------------|-----------------|-------------------|-----------------|
 |----------------|-----------------|-------------------|-----------------|
 |-0-0---0----0---|-0---0---0---0---|-0-0---0-------0---|-0-0-0---0-------|
 |-----3--------3-|-------3---3-----|-----3-----------3-|-------3---------|
 |----------------|-----------------|-------------------|-----------------|
 |----------------|-----------------|-------------------|-----------------|

E E E E +Q. E E E E E E E E E
 
 |------------------|-----------------|
 |------------------|-----------------|
 |-----0------------|-----0-------0---|
 |---4---4-(4)------|---4---4---4---4-|
 |------------------|-2-------0-------|
 |-0----------------|-----------------|

|
| W W
 
 |------------------|-----------------|
 |------------------|-----------------|
 |------------------|-----------------|
 |------------------|-----------------|
 |------------------|-----------------|
 |------------------|-----------------|

|
| E E E Q Q E E E E E Q E E
 
 |------------------|-----------------|
 |------------------|-----------------|
 |-0-0---0----------|-0-0-0---0---0---|
 |-----3----------3-|-------3-------3-|
 |------------------|-----------------|
 |------------------|-----------------|

Verse 4
[E] [E] [E] [B] [E] [E] [E] [E] [E] [E] [E] [E] [E]  
 
 |-----------------------||------------------|
 |-----------------------||------------------|
 |------0----------------||------0-------0---|
 |---4-----4-------------||----4---4---4---4-|
 |-----------------------||--2-------0-------|
 |-0---------------------||------------------|

|
| ~~
| E E E E E E E E W
 
 |-----------------------||------------------|
 |-----10-12-13-12-10----||-10---------------|
 |---9----------------12-||------------------|
 |-----------------------||------------------|
 |-----------------------||------------------|
 |-----------------------||------------------|

|
| E E E Q E E E E E E Q Q E
 
 |-----------------------||------------------|
 |------------------1--1-||--1-1---1---------|
 |-0-0-----0-------------||------3---------3-|
 |------3----------------||------------------|
 |-----------------------||------------------|
 |-----------------------||------------------|

[E] [E] [E] [B] [E] [E] [E] [E] [E] [E] [E] [E] [E]  
 
 |----------------|-----------------|
 |----------------|-----------------|
 |-----0----------|-----0-------0---|
 |---4---4--------|---4---4---4---4-|
 |----------------|-2-------0-------|
 |-0--------------|-----------------|

|
| W W
 
 |----------------|-----------------|
 |----------------|-----------------|
 |----------------|-----------------|
 |----------------|-----------------|
 |----------------|-----------------|
 |----------------|-----------------|

|
| E E E Q E E E E E E E Q E E
 
 |----------------|-----------------|
 |-1-1---4----4-1-|-4-1-4-1-4---4-4-|
 |-----3----------|-----------------|
 |----------------|-----------------|
 |----------------|-----------------|
 |----------------|-----------------|

[E] [E] [E] [B] [E] [E] [E] [E] [E] [E] [E] [E] [E]  
 
 |-------------------------|------------------------|
 |-------------------------|------------------------|
 |------0------------------|---------0----------0---|
 |----4----4---------------|-------4---4------4---4-|
 |-------------------------|--2------------0--------|
 |-0-----------------------|------------------------|

|
| E E E E E E E E H +H
 
 |------8-10-10b12-10-8-10-|-10b12-------(10)-------|
 |---10--------------------|------------------------|
 |-------------------------|------------------------|
 |-------------------------|------------------------|
 |-------------------------|------------------------|
 |-------------------------|------------------------|

|
| E E E Q E E E E E E Q Q E
 
 |--------------------3--1-|--3----3-1-3------------|
 |-4--4----4---------------|------------------------|
 |------5------------------|------------------------|
 |-------------------------|------------------------|
 |-------------------------|------------------------|
 |-------------------------|------------------------|

[E] [E] [E] [B] [E] [E] [E] [E] [E] [E] [E] [E] [E]  
 
 |----------------|---------------------------------|
 |----------------|---------------------------------|
 |-----0----------|----------0---------------0------|
 |---4---4--------|-------4-------4-------4-------4-|
 |----------------|--2---------------0--------------|
 |-0--------------|---------------------------------|

|
| W Q Q Q Q
 
 |----------------|-15b17---15b17---15b17---15b17---|
 |----------------|---------------------------------|
 |----------------|---------------------------------|
 |----------------|---------------------------------|
 |----------------|---------------------------------|
 |----------------|---------------------------------|

|
| E E E Q E E E Q E E Q E E
 
 |-3-3-1-3----3-3-|--3-------3----1--3-------3----1-|
 |----------------|---------------------------------|
 |----------------|---------------------------------|
 |----------------|---------------------------------|
 |----------------|---------------------------------|
 |----------------|---------------------------------|

Chorus
[E] [E] [E] [B] [E] [E] [E] [E] [E] [E] [E] [E] [E]  
 
 |-----------------------------||-----------------|
 |-----------------------------||-----------------|
 |----------0------------------||-----4-------4---|
 |-------4-------4-------------||---4---4---4---4-|
 |-----------------------------||-2-------2-------|
 |--0--------------------------||-----------------|

|
| Gtr IV
| Q Q H E E E E E E E E
 
 |-15b17---15b17---15b17-------||-----------------|
 |-----------------------------||-----------------|
 |-----------------------------||-6-6-6-6-6-6-6-6-|
 |-----------------------------||-6-6-6-6-6-6-6-6-|
 |-----------------------------||-4-4-4-4-4-4-4-4-|
 |-----------------------------||-----------------|

|
| E E E H +E E E E H E
 
 |--3----3--1----3---------(3)-||-3-3-1-3---------|
 |-----------------------------||---------------1-|
 |-----------------------------||-----------------|
 |-----------------------------||-----------------|
 |-----------------------------||-----------------|
 |-----------------------------||-----------------|

[E] [E] [E] [E] [E] [E] [E] [E] [E] [E] [E] [E] [E] [E] [E] [E]  
 
 |---------------------|-----------------|
 |---------------------|-----------------|
 |-----4--------4------|-----4-------4---|
 |---4---4---4------4--|---4---4---4---4-|
 |-2-------2-----------|-2-------2-------|
 |---------------------|-----------------|

|
| E E E E E E E E E E E E E E E E
 
 |---------------------|-----------------|
 |---------------------|-----------------|
 |---------------------|-----------------|
 |-2-2-2-2-2-2--2---2--|-4-4-4-4-4-4-4-4-|
 |-2-2-2-2-2-2--2---2--|-4-4-4-4-4-4-4-4-|
 |-0-0-0-0-0-0--0---0--|-2-2-2-2-2-2-2-2-|

|
| E E E Q E +E +E E E E Q E E E
 
 |-3-3-1-3-------------|-3-3-1-3-----3-3-|
 |-----------1-(1)-(1)-|-----------------|
 |---------------------|-----------------|
 |---------------------|-----------------|
 |---------------------|-----------------|
 |---------------------|-----------------|

[E] [E] [E] [E] [E] [E] [E] [E] [E] [E] [E] [E] [E] [E] [E] [E]  
 
 |---------------------|-----------------|
 |---------------------|-----------------|
 |-----4-----------4---|-----4-------4---|
 |---4---4-------4---4-|---4---4---4---4-|
 |-2----------2--------|-2-------2-------|
 |---------------------|-----------------|

|
| E E E E E E E E E E E E E E E E
 
 |---------------------|-----------------|
 |---------------------|-----------------|
 |-6-6-6-6----6--6-6-6-|-6-6-6-6-6-6-6-6-|
 |-6-6-6-6----6--6-6-6-|-6-6-6-6-6-6-6-6-|
 |-4-4-4-4----4--4-4-4-|-4-4-4-4-4-4-4-4-|
 |---------------------|-----------------|

|
| E E E E +H E E E H E
 
 |-3-3-6---------------|-3-3-1-3---------|
 |-------6b8-(6)-------|---------------1-|
 |---------------------|-----------------|
 |---------------------|-----------------|
 |---------------------|-----------------|
 |---------------------|-----------------|

Bridge
E E E E E E E E E E E E E E E E E E E E E E E E W
 
 |-------------------|-----------------|---------------------||--------------|
 |-------------------|-----------------|---------------------||--------------|
 |-----4-------4-----|-----4-------4---|-----4-----------4---||--------------|
 |---4---4---4----4--|---4---4---4---4-|---4---4-------4---4-||--------------|
 |-2-------2---------|-2-------2-------|-2----------2--------||--------------|
 |-------------------|-----------------|---------------------||--------------|

|
| E E E E E E E E E E E E E E E E E E E E E E E E E E Q Q Q
 
 |-------------------|-----------------|---------------------||--------------|
 |-------------------|-----------------|---------------------||--------------|
 |-------------------|-----------------|-6-6-6-6----6--6-6-6-||---4----------|
 |-2-2-2-2-2-2-2--2--|-4-4-4-4-4-4-4-4-|-6-6-6-6----6--6-6-6-||-6-4--4--5--4-|
 |-2-2-2-2-2-2-2--2--|-4-4-4-4-4-4-4-4-|-4-4-4-4----4--4-4-4-||-6-2--4--5--4-|
 |-0-0-0-0-0-0-0--0--|-2-2-2-2-2-2-2-2-|---------------------||-4----2--3--2-|

|
| E E E H +E E E E Q Q E E E E E +H W
 
 |-3-3-1-3-------(3)-|-3-3-1-3-------3-|-3-3-6---------------||--------------|
 |-------------------|-----------------|-------6b8-(6)-------||--------------|
 |-------------------|-----------------|---------------------||--------------|
 |-------------------|-----------------|---------------------||--------------|
 |-------------------|-----------------|---------------------||--------------|
 |-------------------|-----------------|---------------------||--------------|

Gtr IV
E E Q Q Q E E Q Q Q E E Q Q Q E E Q Q Q
 
 |---------------|---------------|---------------|-------------------|
 |---------------|---------------|---------------|-------------------|
 |---4-----------|---4-----------|---4-----------|---4---------------|
 |-6-4--4--5--5--|-6-4--4--5--4--|-6-4--4--5--5--|-6-4----4---5---4--|
 |-6-2--4--5--5--|-6-2--4--5--4--|-6-2--4--5--5--|-6-2----4---5---4--|
 |-4----2--3--3--|-4----2--3--2--|-4----2--3--3--|-4------2---3---2--|

|
| Gtr II
| ~~~~~~~
| W W W E E E Q +Q.
 
 |---------------|---------------|---------------|---7-12-6--(6)-----|
 |---------------|---------------|---------------|-------------------|
 |---------------|---------------|---------------|-------------------|
 |---------------|---------------|---------------|-------------------|
 |---------------|---------------|---------------|-------------------|
 |---------------|---------------|---------------|-------------------|

E E Q Q Q E E Q Q Q
 
 |-------------------|-------------------|
 |-------------------|-------------------|
 |---4---------------|---4---------------|
 |-6-4----4---5---5--|-6-4----4---5---4--|
 |-6-2----4---5---5--|-6-2----4---5---4--|
 |-4------2---3---3--|-4------2---3---2--|

|
| ~~~~~~~ ~~~~~~~
| E E E Q +Q. E E E Q +Q.
 
 |---7-12-6--(6)-----|---7-12-6--(6)-----|
 |-------------------|-------------------|
 |-------------------|-------------------|
 |-------------------|-------------------|
 |-------------------|-------------------|
 |-------------------|-------------------|

Guitar Solo
E E Q Q Q E E E E E E E E
 
 |-------------------||-------------------------------|
 |-------------------||-------------------------------|
 |---4---------------||--6----6--6-6-6-6--6-----6-----|
 |-6-4----4---5---5--||--6----6--6-6-6-6--6-----6-----|
 |-6-2----4---5---5--||--4----4--4-4-4-4--4-----4-----|
 |-4------2---3---3--||-------------------------------|

|
| ~~~~~~~
| |--3--|
| E E E Q +Q. Q H E S S S
 
 |---7-12-6--(6)-----||-15b17---15-------12-----------|
 |-------------------||---------------------15-13-----|
 |-------------------||---------------------------14--|
 |-------------------||-------------------------------|
 |-------------------||-------------------------------|
 |-------------------||-------------------------------|

[E] [E] [E] [E] [E] [E] [E] [E]  
 
 |------------------------------|
 |------------------------------|
 |------------------------------|
 |--2----2--2-2-2-2--2--2-------|
 |--2----2--2-2-2-2--2--2-------|
 |--0----0--0-0-0-0--0--0-------|

|
| |--3--|
| Q H E S S S
 
 |-15b17---15-------12----------|
 |---------------------15-13----|
 |---------------------------14-|
 |------------------------------|
 |------------------------------|
 |------------------------------|

[E] [E] [E] [E] [E] [E] [E] [E] [E] [E] [E] [E] [E] [E] [E] [E]  
 
 |----------------------------------------------------------|-------------------------------|
 |----------------------------------------------------------|-------------------------------|
 |----------------------------------------------------------|-6----6-----6--6---6---6--6-6--|
 |--4-----4----4----4----4----4----4----4-------------------|-6----6-----6--6---6---6--6-6--|
 |--4-----4----4----4----4----4----4----4-------------------|-4----4-----4--4---4---4--4-4--|
 |--2-----2----2----2----2----2----2----2-------------------|-------------------------------|

|
 
 | |-3--| |-3--| |-3--| |-3--| |-3--|

| E S S S S S S S S S S S S S S S S S S S E E +E S S S S Q.
 
 |-10pb12r==12---11---12---11---12---11---12---11---12---11-|-8b10-8b10-(8)-8---5-8-5-------|
 |----------------------------------------------------------|-----------------8-------------|
 |----------------------------------------------------------|-------------------------------|
 |----------------------------------------------------------|-------------------------------|
 |----------------------------------------------------------|-------------------------------|
 |----------------------------------------------------------|-------------------------------|

[E] [E] [E] [E] [E] [E] [E] [E]  
 
 |---------------------------------------------------|
 |---------------------------------------------------|
 |-6--------6-----------------6--------6--6--6--6--6-|
 |-6--------6-----------------6--------6--6--6--6--6-|
 |-4--------4-----------------4--------4--4--4--4--4-|
 |---------------------------------------------------|

|
 
 | |3-| |--3--| |-3--| |-3--| |---3----| |--3--|

| E S S S S S S S S S S S S E E E E E
 
 |---12-11-12-11-10-8----8----8----------------------|
 |--------------------10---10---10----10----10----10-|
 |---------------------------------12----12----12----|
 |---------------------------------------------------|
 |---------------------------------------------------|
 |---------------------------------------------------|

[E] [E] [E] [E] [E] [E] [E] [E]  
 
 |-----------------------------------|
 |-----------------------------------|
 |-----------------------------------|
 |--2-----2-----2-----2-----2-2-2-2--|
 |--2-----2-----2-----2-----2-2-2-2--|
 |--0-----0-----0-----0-----0-0-0-0--|

|
 
 | |--3--| |--3--|

| E E E E E E H
 
 |-----------------------------------|
 |-----------------------------------|
 |-12--------------------------------|
 |----14-12-14-12----10b12-----------|
 |----------------15-----------------|
 |-----------------------------------|

Gtr III
W
 
 |-----------------------------------------------------|
 |-----------------------------------------------------|
 |-----------------------------------------------------|
 |-----------------------------------------------------|
 |-----------------------------------------------------|
 |-----------------------------------------------------|

|
| Gtr IV
| E E E E E E E E
 
 |-----------------------------------------------------|
 |-----------------------------------------------------|
 |-----------------------------------------------------|
 |-4--4-4--4--------4--------4--------4--------4-------|
 |-4--4-4--4--------4--------4--------4--------4-------|
 |-2--2-2--2--------2--------2--------2--------2-------|

|
| Gtr II
 
 | |--3--| |--3--| |--3--| |--3--| |--3--|

| Q. S S S S S S S S S S S S S S S
 
 |-----------------------------------------------------|
 |-----------------------------------------------------|
 |-----------------------------------------------------|
 |-----------------------------------------------------|
 |-----------12-14-12-14-15-12-14-12-12-14-15-12-14-12-|
 |--------10-------------------------------------------|

Chorus
W E E E H E
 
 |------------------------------------||--3----3-1-3------------|
 |------------------------------------||---------------------1--|
 |------------------------------------||------------------------|
 |------------------------------------||------------------------|
 |------------------------------------||------------------------|
 |------------------------------------||------------------------|

|
| E E E E E E E E E E E E E E E E
 
 |------------------------------------||------------------------|
 |------------------------------------||------------------------|
 |--6----------6-------6-6---6--6-6-6-||--6----6-6-6-6-6--6--6--|
 |--6----------6-------6-6---6--6-6-6-||--6----6-6-6-6-6--6--6--|
 |--4----------4-------4-4---4--4-4-4-||--4----4-4-4-4-4--4--4--|
 |------------------------------------||------------------------|

|
| ~~~~~
 
 | |------3------|

| E E H +H H. E E
 
 |-22b24-22b24---22b24r====(22)-------||-15b17-----------17s15--|
 |------------------------------------||------------------------|
 |------------------------------------||------------------------|
 |------------------------------------||------------------------|
 |------------------------------------||------------------------|
 |------------------------------------||------------------------|

E E E Q Q +E E E E Q E E E
 
 |--3----3-1-3------------|--3--------3----1-3--------3-3-|
 |---------------1----(1)-|-------------------------------|
 |------------------------|-------------------------------|
 |------------------------|-------------------------------|
 |------------------------|-------------------------------|
 |------------------------|-------------------------------|

|
| E E E E E E E E E E E E E E E E
 
 |------------------------|-------------------------------|
 |------------------------|-------------------------------|
 |------------------------|-------------------------------|
 |--2----2-2-2-2-2--2--2--|--4--------4----4-4---4--4-4-4-|
 |--2----2-2-2-2-2--2--2--|--4--------4----4-4---4--4-4-4-|
 |--0----0-0-0-0-0--0--0--|--2--------2----2-2---2--2-2-2-|

|
| ~~~~~ ~~~~~
| H. E E E. S Q. +Q.
 
 |-15b17-----------17s15--|-15b17-20-15b17-----(15)-------|
 |------------------------|-------------------------------|
 |------------------------|-------------------------------|
 |------------------------|-------------------------------|
 |------------------------|-------------------------------|
 |------------------------|-------------------------------|

[E] [E] [E] [E] [+B]  
 
 |--3-----------3----------6----------------|
 |---------------------------6b8--(6)-------|
 |------------------------------------------|
 |------------------------------------------|
 |------------------------------------------|
 |------------------------------------------|

|
| E E E E E E E E
 
 |------------------------------------------|
 |------------------------------------------|
 |--6-----------6----------6-6-----6--6-6-6-|
 |--6-----------6----------6-6-----6--6-6-6-|
 |--4-----------4----------4-4-----4--4-4-4-|
 |------------------------------------------|

|
| ~~~~~~~~~~~~~~~~~~~~~~~~~~~~~~~~~~
 
 | |-----3-----|

| E E E Q. +Q.
 
 |-10b12-10b12-10b12-10b12-------(10)-------|
 |------------------------------------------|
 |------------------------------------------|
 |------------------------------------------|
 |------------------------------------------|
 |------------------------------------------|

[E] [E] [E] [B] [E]  
 
 |-3--3--------1-------3----------------------------|
 |------------------------------------------------1-|
 |--------------------------------------------------|
 |--------------------------------------------------|
 |--------------------------------------------------|
 |--------------------------------------------------|

|
| E E E E E E E E
 
 |--------------------------------------------------|
 |--------------------------------------------------|
 |-6--6--------6-------6------6-----6------6------6-|
 |-6--6--------6-------6------6-----6------6------6-|
 |-4--4--------4-------4------4-----4------4------4-|
 |--------------------------------------------------|

|
 
 | |--3--| |-3--| |-3--| |-3-| |-3-| |-3--|

| E S S S S S S S S S S S S S S S S S S E
 
 |---12-11-12-11-10-8----8--------------------------|
 |--------------------10---10---8-------------------|
 |----------------------------9---9-7-9-7-----------|
 |----------------------------------------10-7-10-7-|
 |--------------------------------------------------|
 |--------------------------------------------------|

[E] [E] [E] [B] [+E]  
 
 |-3--3------1-----3-----------------------(3)------|
 |--------------------------------------------------|
 |--------------------------------------------------|
 |--------------------------------------------------|
 |--------------------------------------------------|
 |--------------------------------------------------|

|
| E E E E E E E E
 
 |--------------------------------------------------|
 |--------------------------------------------------|
 |--------------------------------------------------|
 |-2--2------2-----2-----2-----2-----2------2-------|
 |-2--2------2-----2-----2-----2-----2------2-------|
 |-0--0------0-----0-----0-----0-----0------0-------|

|
 
 | |-3--| |-3-| |-3-| |-3-| |-3-| |-3-| |-3--|

| E S S S S S S S S S S S S S S S S S S S S S
 
 |--------------------------------------------------|
 |---------------8---------8---------8-----------8--|
 |---------9-8-9---8-9-8-9---8-9-8-9---8-9--8--9----|
 |---10-12------------------------------------------|
 |--------------------------------------------------|
 |--------------------------------------------------|

E E E Q E Q E E E E +H
 
 |--3----3-1-3-------------3-|--3----3-6---------------------------||
 |---------------------------|-----------6b8-(6)-------------------||
 |---------------------------|-------------------------------------||
 |---------------------------|-------------------------------------||
 |---------------------------|-------------------------------------||
 |---------------------------|-------------------------------------||

|
| E E E E E E E E E E E E E E E E
 
 |---------------------------|-------------------------------------||
 |---------------------------|-------------------------------------||
 |---------------------------|--6----6-6-6----6-----6----6-----6---||
 |--4----4-4-4---4-----4-4-4-|--6----6-6-6----6-----6----6-----6---||
 |--4----4-4-4---4-----4-4-4-|--4----4-4-4----4-----4----4-----4---||
 |--2----2-2-2---2-----2-2-2-|-------------------------------------||

|
| H +H H S S S S S S S S
 
 |-10b12r======(10)b12-------|-13b15---------12--10-8----8---------||
 |---------------------------|------------------------12---12-10-8-||
 |---------------------------|-------------------------------------||
 |---------------------------|-------------------------------------||
 |---------------------------|-------------------------------------||
 |---------------------------|-------------------------------------||

Outro
Gtr I
[E] [E] [E] [E] [E] [E] [E] [E] [E] [E] [E] [B] [E]  
 
 |------------------|--------------------------|
 |------------------|--------------------------|
 |------0-------0---|--------0-----------------|
 |----4---4---4---4-|------4---4---------------|
 |--2-------0-------|--------------------------|
 |------------------|---0----------------------|

|
| W +W
 
 |------------------|--------------------------|
 |------------------|--------------------------|
 |--6---------------|--(6)---------------------|
 |--6---------------|--(6)---------------------|
 |--4---------------|--(4)---------------------|
 |------------------|--------------------------|

|
| ~~~~~~~~~~~~~~~~~~~~~~~
| W +H. S S S S
 
 |------------------|--------------------------|
 |------------------|--------------13-12-------|
 |-12---------------|-(12)---------------14-12-|
 |------------------|--------------------------|
 |------------------|--------------------------|
 |------------------|--------------------------|

[E] [E] [E] [E] [E] [E] [E] [E] [E] [E] [E] [B] [E]  
 
 |----------------------------|----------------------|
 |----------------------------|----------------------|
 |---------0----------0-------|---------0------------|
 |-------4---4------4----4----|-------4---4----------|
 |--2------------0------------|----------------------|
 |----------------------------|--0-------------------|

|
| Gtr III
| W H. E E
 
 |----------------------------|----------------------|
 |----------------------------|----------------------|
 |----------------------------|----------------------|
 |----------------------------|--------------------3-|
 |----------------------------|----------------------|
 |----------------------------|----------------------|

|
| ~~~~~~~~~~~~~~~~ ~~~~~
| H +Q E S S H. Q
 
 |----------------------------|----------------------|
 |----------------------------|----------------------|
 |-12b14-------(12)-----------|----------------------|
 |----------------------12-10-|-10b12---------9b10---|
 |----------------------------|----------------------|
 |----------------------------|----------------------|

[E] [E] [E] [E] [E] [E] [E]  

Important: The song above is NOT stored on the Chordie server. The original song is hosted at www.guitaretab.com. Chordie works as a search engine and provides on-the-fly formatting. Chordie does not index songs against artists'/composers' will. To remove this song please click here.

Text color:
Chord color:
Chord grids: 
Font size:    
Page size: 

B E
Rate #1 of 1 versions

Login - add to songbook

SHARE PAGE  




You need to log in to post comments