Guitar Tabs, Chords and Lyrics
Server problems seems to be fixed. Chordie has been experiencing problems with songs disappearing. These issues now seems to be fixed, but still verifying the fix. If you find anything strange, please email admin@chordie.com.


You Look Good in Rags  Alice Cooper

Intro: E C A G B E C A E
[E] [C] [A] [G] [B]  
 
 e||------3-2--------------3-2------------3-2--------------3-2-------------|
 B||----------3--s5------------3-5------------3--s5------------5-3----3-4--|
 G||--3-4--------------3-4------------3-4--------------3-4----------4------|
 D||-----------------------------------------------------------------------|
 A||-----------------------------------------------------------------------|
 E||-----------------------------------------------------------------------|

[E] [C] [A] [E]  
 
 e||------3-2--------------3-2------------3-2--------------3-2------||
 B||----------3--s5------------3-5------------3--s5------------3-5--||
 G||--3-4--------------3-4------------3-4--------------3-4----------||
 D||-----------------------------------------------------------------|
 A||-----------------------------------------------------------------|
 E||-----------------------------------------------------------------|

[B]I've seen cool, I've seen cold
I've seen the women up front, way down below
L[A]adies with an evil scheme and some were like v[E]ipers
[B]I've seen 'em dressed real tight, act real loose
I've seen 'em strutting good stuff, I've seen 'em all used
Th[A]ousand dollar faces and works every penny they sp[E]end there
[E] But you look good in rags
[C] With dirt in your hair
[A] Yeah you look good in rags babe
[G] Oh, I don't c[B]are
[E] Yes you look good in rags
[C] With buns in your hair
[A] Ah, you look good in anything
[E] Ooh, I don't care
Now I've seen class, I've seen tact
I've seen 'em walking down the street with smoke in their stack
And pouring into limos, they wake up in millionaires' bedrooms
I've seen the hair cut short, black and sleek
Tied in 20 thousand knots so ultra neat
Swearing by the Harcos bazaar, I'll get through the Bible
But you look good in rags
With dirt in your hair
Yeah you look good in rags babe
Oh, I don't care
Yes you look good in rags
With dirt in your hair
Ah, you look good in anything
Forg[B]et about vogue, golden 100 dollar jeans, you make a 2 dollar T-shirt obscene
Outro: E C A G B to fade

Important: The song above is NOT stored on the Chordie server. The original song is hosted at www.guitaretab.com. Chordie works as a search engine and provides on-the-fly formatting. Chordie does not index songs against artists'/composers' will. To remove this song please click here.

Text color:
Chord color:
Chord grids: 
Font size:    
Page size: 

A B C E G
Rate #1 of 2 versions

Login - add to songbook

SHARE PAGE  



You need to log in to post comments