Guitar Tabs, Chords and Lyrics
Major upgrade!! After one year development the new version of Chordie is now online! Please give feedback.


No Excuses  Alice in Chains

Subject: TAB: AiC's No Excuses
This is the transcription of AiC's No Excuses. I used TAB MASTER to write it
down...
No Excuses as recorded by AiC
 
 --------------------------------------------------------------------

Tune down 1/2 step
Chords
Aadd2: Badd4: G6: E:
e 0 0 0 0
B 0 0 0 0
G 6 8 4 1
[D] [7] [9] [5] [2] 
[A]E [7]5 [9]7 [5]3 [2]0
1. verse
sl.
[Aadd2] [/] [Badd4] It's alright[Aadd2]. [Badd4] There comes a time.[Aadd2]
sl.
[Aadd2] [/] [Badd4] Got no patien[Aadd2]ce to s[Badd4]earch for peace of mind.[Aadd2]
sl.
[Aadd2] [/] [Badd4] Layin' low. [Aadd2] [Badd4] Want to take it slow.[Aadd2]
sl.
[Aadd2] [/] [Badd4] No more hidin[Aadd2]g or disg[Badd4]uising truths I sold.[Aadd2]
2. verse
It's okay. Had a bad day.
Hands are bruised from breaking rocks all day.
Drained and blue, I bleed for you.
You think it's funny, well, you're drowning in it too.
3. verse
Yeah, it's fine. We'll walk down the line.
Leave our rain, a cold trade for warm sunshine.
You my friend, I will defend.
And if we change, well, I love you anyway.
G6 Aadd2
Chorus 1 & 2
Ev'ry day___ it's some _ thing, hits
 
 e:------------------|------------------------------------|
 B:---------------7--|--(7)-------------------------------|
 G:---4-----4--------|------------4--7b(9)rb(7)p4------4--|
 D:7-----7-----7-----|------------------------------7-----|
 A:------------------|------------------------------------|
 E:------------------|------------------------------------|

[Badd4] [Aadd2] 
_ me all so cold. You
 
 e:--------------------------|-------------------------------|
 B:-----------------------7--|-(7)-------7h8p7p5-------------|
 G:-(4)----4-----4-----------|--------------------7b(9)rb(7)-|
 D:-----7-----7-----4--7-----|-------------------------------|
 A:--------------------------|-------------------------------|
 E:--------------------------|-------------------------------|

[G6] [Aadd2]  
find me sittin' by myself, no exc
 
 e:-------------------------|-----------------------------------0----|
 B:-------------------------|-----------------------------------0----|
 G:-(7)----4-----4-------6--|-(6)--4------------7b(9)rb(7)b(9)-------|
 D:-----7-----7-----7-------|---------7------------------------------|
 A:-------------------------|----------------------------------------|
 E:-------------------------|----------------------------------------|

2nd time substitute Fill 1
[E] [Aadd2] 
uses, then I know.
 
 e:-(0)------------0-----|------------------------|
 B:-(0)------------0-----|------------------------|
 G:-------------------4--|-(4)--------------------|
 D:-------------------4--|-(4)--------------------|
 A:----------------------|------------------------|
 E:----------------------|------------------------|

Fill 1
 
 e:-------------------------------|-----|-----|-----|-----|------|
 B:-------------------------------|-----|-----|-----|-----|------|
 G:(6)--4-----7b(9)rb(7)p4--------|-----|-----|-----|-----|------|
 D:--------7----------------7b(9)-|-(7)-|-(7)-|-(7)-|-(7)-|------|
 A:-------------------------------|-----|-----|-----|-----|------|
 E:-------------------------------|-----|-----|-----|-----|------|

Guitar Solo w/chords from chorus
 
 e:--12p10-----10----------------|-------------------------|
 B:--------12------12~~~~--------|-------------------------|
 G:-----------------------9b(11)-|-(9)----9--7~~~~~~~~~~~~~|
 D:------------------------------|-------------------------|
 A:------------------------------|-------------------------|
 E:------------------------------|-------------------------|
 e:-----12p10-----10----------------|-------------------------------------|
 B:-----------12-----12~~~~--7b(9)--|----------12----------12-------------|
 G:~~~-----------------------7b(9)--|----9/11------9b(11)------9b(11)--7--|
 D:---------------------------------|-------------------------------------|
 A:---------------------------------|-------------------------------------|
 E:---------------------------------|-------------------------------------|

grad.bend
 
 e:------------------------------|----------------------------|
 B:------10--7-------------------|---------------------9b(10)~|
 G:(7)----9--6--9b(11)--9--7-----|---------------------9b(11)~|
 D:---------------------------9--|--9~~~~~~~~~~~~~~-----------|
 A:------------------------------|----------------------------|
 E:------------------------------|----------------------------|

grad.bend
 
 e:----------------------|--------------------------|
 B:~~~~~~~~rb(9)-----7h9-|--------------------------|
 G:~~~~~~~~rb(9)-----7h9-|--------------------------|
 D:----------------------|--------------------------|
 A:----------------------|--------------------------|
 E:----------------------|--------------------------|

3rd Chorus w/chords from chorus
 
 e:----------------------------|
 B:-------------------------19-|
 G:------16------16~~~---------|
 D:--19------19---------19-----|
 A:----------------------------|
 E:----------------------------|
 e:-----------------------------------------------|---------------------------|
 B:-(19)------------------------------------------|---------------------------|
 G:-----------16~~~--18b(19)rb(18)p16-------16~~~~~~------16------16----------|
 D:-------19---------------------------19---------|---19------19------19~~~~--|
 A:-----------------------------------------------|---------------------------|
 E:-----------------------------------------------|---------------------------|
 e:------|---------------------------------------|
 B:--19--|-(19)------19h20p19p17-----------------|
 G:------|------------------------19b(21)rb(19)--|
 D:------|---------------------------------------|
 A:------|---------------------------------------|
 E:------|---------------------------------------|
 e:------------------------------------|
 B:--------------------------------19--|
 G:-(19)------16------16---------------|
 D:-------19------19------19-----------|
 A:------------------------------------|
 E:------------------------------------|
 e:--------------------------------------------|--------------------------|
 B:-(19)---------------------------------------|--------------------------|
 G:--------16--19b(21)rb(19)p16----------------|--------------------------|
 D:------------------------------19---19b(21)~~|~~~~~~~~~~~~~~rb(19)----7-|
 A:--------------------------------------------|--------------------------|
 E:--------------------------------------------|--------------------------|
 e:-----------------------|---------|---------|---------|-|
 B:-----------------------|---------|---------|---------|-|
 G:-----------------------|---------|---------|---------|-|
 D:--9--7-----------------|---------|---------|---------|-|
 A:--------9\7--5--7p(9)--|---(7)---|---(7)---|---(7)---|-|
 E:-----------------------|---------|---------|---------|-|

grad. bend

Important: The song above is NOT stored on the Chordie server. The original song is hosted at www.guitaretab.com. Chordie works as a search engine and provides on-the-fly formatting. Chordie does not index songs against artists'/composers' will. To remove this song please click here.

Text color:
Chord color:
Chord grids: 
Font size:    
Page size: 

A Aadd2 Badd4 D E G6
Rate #1 of 4 versions

Jango Player

Login - add to songbook

SHARE PAGE  




You need to log in to post comments