Guitar Tabs, Chords and Lyrics
Major upgrade!! After one year development the new version of Chordie is now online! Please give feedback.


Brother  Alice in Chains

Song: Brother (Unplugged)
Artist: Alice In Chains
Album: Unplugged
Tuning: Eb, Ab, Db, Gb, Bb, Eb
Chords Used:
[A7] [A7sus4] [A5] [F] [G]  
 
 eb|-0-|----0---|--x-|-1-|-3-----------------
 Bb|-2-|----3---|--x-|-1-|-3-----------------
 Gb|-0-|----0---|--x-|-2-|-0-----------------
 Db|-2-|----2---|--2-|-3-|-0-----------------
 Ab|-0-|----0---|--0-|-3-|-2-----------------
 Eb|-x-|----x---|--x-|-1-|-3-----------------

___________________________________________________________________________________________
 
 eb|------0-----0------0-----0-------------------------------------------------|
 Bb|--2---2-----2--2---2--2--2--2-----2--2-3-5-3-2-----------------------------|
 Gb|--0---0--0-----0---0--0-----0--0--0--0-0-0-0-0-----------------------------| x4
 Db|--2---2--2-----2---2--2-----2--2--2--2-3-5-3-2-----------------------------|
 Ab|--0---0--------0---0--------0--0--0----------------------------------------|
 Eb|---------------------------------------------------------------------------|
 eb|---------------------------------------------------------------------------|
 Bb|--------------------5b(5)---------------------------5b(5)--------8b(8)-----|
 Gb|-------------------------6b(6)----------------------------6b(6)------------|
 Db|-----------------5-----------------------------5---------------------------|
 Ab|--------3--5--7-----------------------3--5--7------------------------------|
 Eb|--3--5--------------------------3--5---------------------------------------|
 eb|---------------------------------------------------------------------------|
 Bb|--------------------5b(5)--------------------------3-5-3-2-----------------|
 Gb|-------------------------6b(6)---------------------0-0-0-0-----------------|
 Db|-----------------5-----------------------------5--3-5-3-2------------------|
 Ab|--------3--5--7-----------------------3--5--7------------------------------|
 Eb|--3--5--------------------------3--5---------------------------------------|

[A7]Frozen in the place I hide
[A7]Not afraid to paint my sky with
[A7]Some who say I've lost my mind
[A7]Brother try and hope to find
[F]You were always so far away[A7] [A7sus4] [A7] [A5] [A7sus4] [A7]
[F]I know that pain [E]so [G]don't you run away
[G]Like you used to do
 
 eb|------0-----0------0-----0-------------------------------------------------|
 Bb|--2---2-----2--2---2--2--2--2-----2--2-3-5-3-2-----------------------------|
 Gb|--0---0--0-----0---0--0-----0--0--0--0-0-0-0-0-----------------------------| x2
 Db|--2---2--2-----2---2--2-----2--2--2--2-3-5-3-2-----------------------------|
 Ab|--0---0--------0---0--------0--0--0----------------------------------------|
 Eb|---------------------------------------------------------------------------|
 eb|---------------------------------------------------------------------------|
 Bb|--------------------5b(5)---------------------------5b(5)--------8b(8)-----|
 Gb|-------------------------6b(6)----------------------------6b(6)------------| x2
 Db|-----------------5-----------------------------5---------------------------|
 Ab|--------3--5--7-----------------------3--5--7------------------------------|
 Eb|--3--5--------------------------3--5---------------------------------------|

[A7]Roses in a vase of white
[A7]Bloodied by the thorns beside the leaves
[A7]That fall because my hand is
[A7]Pulling them hard as I can
[F]You were always so far away[A7] [A7sus4] [A7] [A5] [A7sus4] [A7]
[F]I know that pain
[E]So I[G] won't run away like I used to do
 
 eb|------0-----0------0-----0-------------------------------------------------|
 Bb|--2---2-----2--2---2--2--2--2-----2--2-3-5-3-2-----------------------------|
 Gb|--0---0--0-----0---0--0-----0--0--0--0-0-0-0-0-----------------------------|
 Db|--2---2--2-----2---2--2-----2--2--2--2-3-5-3-2-----------------------------|
 Ab|--0---0--------0---0--------0--0--0----------------------------------------|
 Eb|---------------------------------------------------------------------------|

Solo:
 
 eb|--------------------------------------------5----5-------------------------|
 Bb|------------------------------------------5---5-----5--8b--7--5-7b---------|
 Gb|---------------5-7b--(7)-(7)h5----5---7b-----------------------------------|
 Db|--5h7--7--5h7----------------7---------------------------------------------|
 Ab|---------------------------------------------------------------------------|
 Eb|---------------------------------------------------------------------------|
 eb|---------------------------------------------------------------------------|
 Bb|--5------------------------------------------------------------------------|
 Gb|----7---5-7b(7)h5-----------------------------------------------------5b---|
 Db|------------------7--7--5h7-7-(7)------------------------------5--7--------|
 Ab|-----------------------------------5--3--5b-(5)h3-------3-5/7--------------|
 Eb|--------------------------------------------------5-3-5--------------------|
 eb|----------------------------------------------------------------------5----|
 Bb|------------------8b-8b-8b----------------------------------------5--------|
 Gb|-(7)--7--5-7h5-5------------(7)h5----7b-7b-7b-(7)h5---------------5--------|
 Db|---------------------------------7-----------------7-(7)-5h7--5h7----------|
 Ab|---------------------------------------------------------------------------|
 Eb|---------------------------------------------------------------------------|
 eb|--8b---(8)--8--5-----------------------------------------------------------|
 Bb|-----------------8b-8--7--5-7b-(7)h5---------------------------------------|
 Gb|-------------------------------------7--5--(7)h5---------------------------|
 Db|-------------------------------------------------7-5-5--5h7----------------|
 Ab|---------------------------------------------------------------------------|
 Eb|---------------------------------------------------------------------------|

Pictures in a box at home
Yellowing and green with mold
So I can barely see your face
Wonder how that color taste
[F]You were always so far away[A7] [A7sus4] [A7] [A5] [A7sus4] [A7]
[F]I know the way [E]so [G]don't you run away
[G]Like you used to do
 
 eb|------0-----0------0-----0-------------------------------------------------|
 Bb|--2---2-----2--2---2--2--2--2-----2--2-3-5-3-2-----------------------------|
 Gb|--0---0--0-----0---0--0-----0--0--0--0-0-0-0-0-----------------------------| x2
 Db|--2---2--2-----2---2--2-----2--2--2--2-3-5-3-2-----------------------------|
 Ab|--0---0--------0---0--------0--0--0----------------------------------------|
 Eb|---------------------------------------------------------------------------|
 eb|---------------------------------------------------------------------------|
 Bb|--------------------5b(5)---------------------------5b(5)--------8b(8)-----|
 Gb|-------------------------6b(6)----------------------------6b(6)------------| x2
 Db|-----------------5-----------------------------5---------------------------|
 Ab|--------3--5--7-----------------------3--5--7------------------------------|
 Eb|--3--5--------------------------3--5---------------------------------------|

Hope you liked this tab. Enjoy playing and rock on.

Important: The song above is NOT stored on the Chordie server. The original song is hosted at www.guitaretab.com. Chordie works as a search engine and provides on-the-fly formatting. Chordie does not index songs against artists'/composers' will. To remove this song please click here.

Text color:
Chord color:
Chord grids: 
Font size:    
Page size: 

A5 A7 A7sus4 E F G
Rate #1 of 7 versions

Jango Player

Login - add to songbook

SHARE PAGE  




You need to log in to post comments