Guitar Tabs, Chords and Lyrics
Server problems seems to be fixed. Chordie has been experiencing problems with songs disappearing. These issues now seems to be fixed, but still verifying the fix. If you find anything strange, please email admin@chordie.com.


Fine  Alkaline Trio

 
 -----------------------------------------------------------------------------

Fine (Acoustic) - Alkaline Trio - This Addiction
Standard Tuning (EADGBe)
Arranged/Tabbed By Jack Cookson (Torn Asunder)
 
 -----------------------------------------------------------------------------

This song can be found on the deluxe version of Alkaline Trio's new album,
'This Addiction'.
 
 -----------------------------------------------------------------------------

Chords used:
Don't play the strings marked with an 'x'
A (x02220)
Asus2 (xx7600)
D (xx0232)
Dsus4 (xx0230)
[F#m]E [(244222)](022100)
 
 -----------------------------------------------------------------------------

Main Riff
[Asus2] [F#m]  
 
 e|------------------0----------------------------------------|
 B|---------0-----------------0-------------------2-----------|
 G|-----6--------6--------6--------6---6------2-------2---2---|
 D|--/7---7----7---7----7---7----7---7------4---4---4---4-----|
 A|-----------------------------------------------------------|
 E|-----------------------------------------------------------|

[Dsus2]  
 
 e|---------0-------------|
 B|----3----------3---3---|
 G|------2----------2-----|
 D|--0---------0----------|
 A|-----------------------|
 E|-----------------------|

This is played at various points of the song by a second guitar, it's pretty
easy to hear when.
 
 -----------------------------------------------------------------------------

Intro:
Main riff x4
Chords come in after main riff is played twice for two more repeats.
Asus2 F#m Dsus2 x2
It's gonna [Asus2]rain like this for days
I'm gonna [F#m]drown in my old [Dsus2]ways
But I'[Asus2]m fine
[F#m] I'm fin[Dsus2]e
It's gonna h[Asus2]urt like hell
When you pull back the h[F#m]ammer and fi[Dsus2]re
But I'm[Asus2] fine
[F#m] I'm fi[Dsus2]ne
You see a s[E]torm knocked out my super power
[D]Now I sleep through thunder showers
[A]Wake me when you learn to be [E]cool
If I'm the c[E]aptain of this boat then all my sh[D]ipmates are fools
And all the the [A]stars in the world couldn't help me
[E]Steer my way out [D]of this kiddy pool
Play main riff x2
I'm gonna [Asus2]wake up from these dreams
With nightmares [F#m]lined up on my str[Dsus2]eet
But [Asus2]I'm fine
[F#m] I'm fi[Dsus2]ne
Needed a h[Asus2]and to keep my head up
So you put [F#m]hooks in both my [Dsus2]ears
And I[Asus2]'m fine
[F#m] I'm fi[Dsus2]ne
Yeah, it's a c[E]hronic pain in my ass but no [D]it's not a burden
It's ir[A]onic that I drink to make my in[E]sides stop hurting
And it's l[E]ove that gives me heartburn
It's a s[D]ong that makes my stomach turn
And I w[A]ouldn't trade my hand[E] for all the a[D]ces in the d[A]eck[F#m] [D]
'Cause I[Asus2]'m fine[F#m] [Dsus2]
'Cause I[Asus2]'m fine[F#m] [Dsus2]
[Asus2]I'm fine
[F#m] I'm fine[Dsus2]
[Asus2]I'm fine
Play main riff for outro from the last Asus2 chord, and there you have it.

Important: The song above is NOT stored on the Chordie server. The original song is hosted at www.guitaretab.com. Chordie works as a search engine and provides on-the-fly formatting. Chordie does not index songs against artists'/composers' will. To remove this song please click here.

Text color:
Chord color:
Chord grids: 
Font size:    
Page size: 

A Asus2 D Dsus2 E F#m
Rate #2 of 4 versions

Jango Player

Login - add to songbook

SHARE PAGE  



You need to log in to post comments