Guitar Tabs, Chords and Lyrics
Server problems seems to be fixed. Chordie has been experiencing problems with songs disappearing. These issues now seems to be fixed, but still verifying the fix. If you find anything strange, please email admin@chordie.com.


Stupid Kid  Alkaline Trio

Standard Tuning
INTRO
[B] [E] [Abm] [F#]  
 
 e|--------------------------------------------|
 B|--------------------------------------------|
 G|--4-4-4--9-9-8-8-6-6---------9-9-8-8-6-6----|
 D|--4-4-4--x-x-x-x-x-x--6-6-6--x-x-x-x-x-x----|
 A|--2-2-2--7-7-6-6-4-4--6-6-6--7-7-6-6-4-4----|
 E|----------------------4-4-4-----------------| x2 

(Verse)
Th[B]ere are things that used to make me s[F#]mile[E]
One of t[B]hem was you for just a little wh[F#]ile[E]
You left [B]me for dead so far away
I re[F#]placed you with fe[E]ar and shame
Yo[B]u'll be happy on the day I[F#] die[E]
[B] [E] [Abm] [F#]  
 
 e|--------------------------------------------|
 B|--------------------------------------------|
 G|--4-4-4--9-9-8-8-6-6---------9-9-8-8-6-6----|
 D|--4-4-4--x-x-x-x-x-x--6-6-6--x-x-x-x-x-x----|
 A|--2-2-2--7-7-6-6-4-4--6-6-6--7-7-6-6-4-4----|
 E|----------------------4-4-4-----------------|x2 

Th[B]ere are things that used to make me la[F#]ugh[E]
But n[B]ow they're deeply buried in the p[F#]ast[E]
I l[B]eft them there so far away
Re[F#]placed my humor w[E]ith my pain
I'[B]ll be happy on the day it[F#] dies[E]
(Chorus)
Rem[B]ember when I sai[Abm]d I l[F#]ove you
W[B]ell, forget it I take it b[Abm]ack[F#] [B]
I was just a st[Abm]upid k[F#]id back th[E]en
I take back e[F#]very w[E]ord that I s[B]aid
[B] [E] [Abm] [F#]  
 
 e|--------------------------------------------|
 B|--------------------------------------------|
 G|--4-4-4--9-9-8-8-6-6---------9-9-8-8-6-6----|
 D|--4-4-4--x-x-x-x-x-x--6-6-6--x-x-x-x-x-x----|
 A|--2-2-2--7-7-6-6-4-4--6-6-6--7-7-6-6-4-4----|
 E|----------------------4-4-4-----------------| x2

(Verse)
Th[B]ere are things that used to make you c[F#]ry[E]
One of t[B]hem was me for just a little wh[F#]ile[E]
W[B]hy is it that you had to say
G[F#]oodbye in your sp[E]ecial way[B]
You slashed the tires on my[F#] car[E]
(Chorus)
Rem[B]ember when I sai[Abm]d I l[F#]ove you
W[B]ell, forget it I take it b[Abm]ack[F#] [B]
I was just a st[Abm]upid k[F#]id back th[E]en
I take back e[F#]very w[E]ord that I s[B]aid
(Bridge)
[B] [E] [Abm] [F#]  
 
 e|--------------------------------------------|
 B|--------------------------------------------|
 G|--4-4-4--9-9-8-8-6-6---------9-9-8-8-6-6----|
 D|--4-4-4--x-x-x-x-x-x--6-6-6--x-x-x-x-x-x----|
 A|--2-2-2--7-7-6-6-4-4--6-6-6--7-7-6-6-4-4----|
 E|----------------------4-4-4-----------------| x2

[B] [E] [Abm] [F#] [B] [E] [Abm] [F#]  
 
 e|------------------------------------------------------------------|
 B|------------------------------------------------------------------|
 G|--4-4-4-4-4-4-4-4-4-4-4-4-3-3-3-3-4-4-4-4-4-4-4-4-9-9-9-8-8-8-6-6-|
 D|--x-x-x-x-x-x-x-x-x-x-x-x-x-x-x-x-x-x-x-x-x-x-x-x-x-x-x-x-x-x-x-x-|
 A|--2-2-2-2-2-2-2-2-2-2-2-2-1-1-1-1-2-2-2-2-2-2-2-2-7-7-7-6-6-6-4-4-|
 E|------------------------------------------------------------------|

(Chorus)
Rem[B]ember when I sai[Abm]d I l[F#]ove you
W[B]ell, forget it I take it b[Abm]ack[F#] [B]
I was just a st[Abm]upid k[F#]id back th[E]en
I take back e[F#]very w[E]ord that I s[B]aid

Important: The song above is NOT stored on the Chordie server. The original song is hosted at www.guitaretab.com. Chordie works as a search engine and provides on-the-fly formatting. Chordie does not index songs against artists'/composers' will. To remove this song please click here.

Text color:
Chord color:
Chord grids: 
Font size:    
Page size: 

Abm B E F#
Rate #1 of 2 versions

Jango Player

Login - add to songbook

SHARE PAGE  



You need to log in to post comments