Guitar Tabs, Chords and Lyrics
Major upgrade!! After one year development the new version of Chordie is now online! Please give feedback.


Clavicle   Alkaline Trio

 
 e---------------------------------
 B---------------------------------
 G---------------------------------
 D--7-7-7-9-9-9-11-11-11--9-9-9----
 A--0-0-0-0-0-0-0--0--0---7-7-7----
 E--5-5-5-7-7-7-9--9--9---0-0-0----

 


 


 Verse


 

 
 e---------------------------
 B---------------------------
 G---------------------------
 D-7-7-7-9-9-9-11-11-11-9-9-9 X3
 A-0-0-0-0-0-0-0--0--0--7-7-7
 E-5-5-5-7-7-7-9--9--9--0-0-0
 e------------------
 B------------------
 G---------7-7-7----
 D-4-4-4-4-7-7-7----
 A-4-4-4-4-5-5-5----
 E-2-2-2-2----------

 


 


 Chorus


 

 
 e----------------------------------------
 B----------------------------------------
 G----------------------------------------
 D----------------------7-----------7-----
 A-4-------4------------4-----------5-----
 E-2-------0------------------------------
 e----------------------------------------
 B----------------------------------------
 G----------------------------------------
 A----------------------7------------7----
 D-4-------4------------4------------5----
 E-2-------0------------------------------

 


 


 e---


 [B---]  


 [G---]  


 [D-7-]  


 [A-7-]  


 [E-5-]  


 

 
 e---------------------------------------
 B---------------------------------------
 G-6-6-6-6--7-7-7-7--9-9-9-9--7-7-7-7----
 D---------------------------------------
 A-4-4-4-4--5-5-5-5--7-7-7-7--5-5-5-5----
 E---------------------------------------

 


 


 Then its back into the verse (but playing different to origional)


 "Before you left...............please do"


 

 
 e-----------------------------------------
 B-----------------------------------------
 G--------------6-6-6-6-6--7-7-7-7-7-------
 D-9-9-9-9-9-9--6-6-6-6-6--7-7-7-7-7-------
 A-9-9-9-9-9-9--4-4-4-4-4--5-5-5-5-5-------
 E-7-7-7-7-7-7-----------------------------
 e----------------------------------------------
 B----------------------------------------------
 G----------------------------------------------
 D-7-------------------4---------------2--------
 A-7-------------------4---------------2--------
 E-5-------------------2---------------0--------

 


 [-]  

 
 e---------------- e-------
 B---------------- B-------
 G-9-9--7-7--6-6-- G-------
 D---------------- D-7-7---
 A-7-7--5-5--4-4-- A-7-7---
 E----------------- E-5-5---
 e--------------------------------------------
 B--------------------------------------------
 G--6-6-6--7-7-7-7-7--9-9-9-9--7-7-7-7--------
 D--------------------------------------------
 A--4-4-4--5-5-5-5-5--7-7-7-7--5-5-5-5--------
 E--------------------------------------------
 e-------------------
 B-------------5-----
 G-------------6-----
 D-------------7-----
 A---4-5-------7-----
 E--------5----5-----
 e-------------------------------------------------------
 B-------------------------------------------------------
 G-------------------------------------------------------
 D-11-------11-----------7----------7---------------7----
 A-9--------7------------4----------5---------------7----
 E--------------------------------------------------5----


Important: The song above is NOT stored on the Chordie server. The original song is hosted at www.guitaretab.com. Chordie works as a search engine and provides on-the-fly formatting. Chordie does not index songs against artists'/composers' will. To remove this song please click here.

This song is displayed as text-only. Transposing and tuning is only available for chordpro-songs.
Rate #3 of 6 versions

Jango Player

Login - add to songbook

SHARE PAGE  



You need to log in to post comments