Guitar Tabs, Chords and Lyrics
Server problems seems to be fixed. Chordie has been experiencing problems with songs disappearing. These issues now seems to be fixed, but still verifying the fix. If you find anything strange, please email admin@chordie.com.


Keep â??Em Coming   Alkaline Trio

 
 |---------------------------------|----------------------------------|
 |-5-5-5-5-5-5-5-5-3-3-3-3-3-3-3-3-|-2-2-2-2-2-2-2-2-3-3-3-3-3-3-3-3--|
 |-2-2-2-2-2-2-2-2-2-2-2-2-2-2-2-2-|-2-2-2-2-2-2-2-2-2-2-2-2-2-2-2-2--|
 |---------------------------------|----------------------------------|
 |---------------------------------|----------------------------------|
 |---------------------------------|----------------------------------|
 |---------------------------------|-----------------------------------|
 |-5-5-5-5-5-5-5-5-3-3-3-3-3-3-3-3-|--2--2-2-2-2-2-2-2-3-3-3-3-3-3-3-3-|
 |-2-2-2-2-2-2-2-2-2-2-2-2-2-2-2-2-|--2--2-2-2-2-2-2-2-2-2-2-2-2-2-2-2-|
 |---------------------------------|-----------------------------------|
 |---------------------------------|-----------------------------------|
 |---------------------------------|-----------------------------------|

 


 |


 | Gtr II


 

 
 |---------------------------------|-----------------------------------|
 |-5-------------------------------|-(5)---------------x-x-x-x-x-x-x-x-|
 |-2-------------------------------|-(2)---------------x-x-x-x-x-x-x-x-|
 |---------------------------------|-------------------x-x-x-x-x-x-x-x-|
 |---------------------------------|-----------------------------------|
 |---------------------------------|-----------------------------------|

 


 


 Gtrs I, II


 

 
 ||----------------------------------|-----------------------------------||
 ||o-5-5-5-5-5-5-5-5-3-3-3-3-3-3-3-3-|-2-2-2-2-2-2-2-2-3-3-3-3-3-3-3-3--o||
 ||--2-2-2-2-2-2-2-2-2-2-2-2-2-2-2-2-|-2-2-2-2-2-2-2-2-2-2-2-2-2-2-2-2---||
 ||----------------------------------|-----------------------------------||
 ||o---------------------------------|----------------------------------o||
 ||----------------------------------|-----------------------------------||

 


 


 Verse


 

 
 ||----------------------------------|-----------------------------------||
 ||o-5-5-5-5-5-5-5-5-3-3-3-3-3-3-3-3-|-2-2-2-2-2-2-2-2-3-3-3-3-3-3-3-3--o||
 ||--2-2-2-2-2-2-2-2-2-2-2-2-2-2-2-2-|-2-2-2-2-2-2-2-2-2-2-2-2-2-2-2-2---||
 ||----------------------------------|-----------------------------------||
 ||o---------------------------------|----------------------------------o||
 ||----------------------------------|-----------------------------------||

 


 "Fourteen hours ahead..."


 


 

 
 |---------------------------------|---------------------------------|
 |---------------------------------|---------------------------------|
 |-9-9-9-9-9-9-9-9-9-9-9-9-9-9-9-9-|-9-9-9-9-9-9-9-9-9-9-9-9-9-9-9/--|
 |---------------------------------|---------------------------------|
 |-7-7-7-7-7-7-7-7-7-7-7-7-7-7-7-7-|-7-7-7-7-7-7-7-7-7-7-7-7-7-7-7/--|
 |---------------------------------|---------------------------------|

 


 "Toothpicks in my eyes..."


 


 

 
 |---------------------------------|-----------------------------------|
 |---------------------------------|-----------------------------------|
 |-7-7-7-7-7-7-7-7-7-7-7-7-7-7-7-7-|-7-7-7-7-7-7-7-7-7-7-7-7-7-7-7-7---|
 |---------------------------------|-----------------------------------|
 |-5-5-5-5-5-5-5-5-5-5-5-5-5-5-5-5-|-5-5-5-5-5-5-5-5-5-5-5-5-5-5-5-5---|
 |---------------------------------|-----------------------------------|

 


 "Than the skies"


 


 Bridge


 

 
 ||----------------------------------|-----------------------------------||
 ||o-5-5-5-5-5-5-5-5-3-3-3-3-3-3-3-3-|-2-2-2-2-2-2-2-2-3-3-3-3-3-3-3-3--o||
 ||--2-2-2-2-2-2-2-2-2-2-2-2-2-2-2-2-|-2-2-2-2-2-2-2-2-2-2-2-2-2-2-2-2---||
 ||----------------------------------|-----------------------------------||
 ||o---------------------------------|----------------------------------o||
 ||----------------------------------|-----------------------------------||

 


 After that^ play the whole verse again, then skip to chorus


 


 Chorus


 

 
 |-------------------------|-------------------------|
 |-10-10-10-10-10-10-10-10-|-10-10-10-10-10-10-10-10-|
 |--9--9--9--9--9--9--9--9-|--9--9--9--9--9--9--9--9-|
 |--7--7--7--7--7--7--7--7-|--7--7--7--7--7--7--7--7-|
 |-------------------------|-------------------------|
 |-------------------------|-------------------------|

 


 "Sad, sorry excuse"


 


 

 
 |-----------------|-----------------|
 |-----------------|-----------------|
 |-7-7-7-7-7-7-7-7-|-7-7-7-7-7-7-7-7-|
 |-7-7-7-7-7-7-7-7-|-7-7-7-7-7-7-7-7-|
 |-5-5-5-5-5-5-5-5-|-5-5-5-5-5-5-5-5-|
 |-----------------|-----------------|
 |-----------------|-----------------|-----------------|-----------------|
 |-----------------|-----------------|-----------------|-----------------|
 |-9-9-9-9-9-9-9-9-|-7-7-7-7-7-7-7-7-|-9-9-9-9-9-9-9-9-|-7-7-7-7-7-7-7-7-|
 |-9-9-9-9-9-9-9-9-|-7-7-7-7-7-7-7-7-|-9-9-9-9-9-9-9-9-|-7-7-7-7-7-7-7-7-|
 |-7-7-7-7-7-7-7-7-|-5-5-5-5-5-5-5-5-|-7-7-7-7-7-7-7-7-|-5-5-5-5-5-5-5-5-|
 |-----------------|-----------------|-----------------|-----------------|

 


 "Just like everything..." "and everything I used, I"


 


 

 
 ||----------------------------------|-----------------------------------||
 ||o-5-5-5-5-5-5-5-5-3-3-3-3-3-3-3-3-|-2-2-2-2-2-2-2-2-3-3-3-3-3-3-3-3--o||
 ||--2-2-2-2-2-2-2-2-2-2-2-2-2-2-2-2-|-2-2-2-2-2-2-2-2-2-2-2-2-2-2-2-2---||
 ||----------------------------------|-----------------------------------||
 ||o---------------------------------|----------------------------------o||
 ||----------------------------------|-----------------------------------||

 


 "Won't go back..."


 


 

 
 |---------------------------------|-----------------------------------|
 |---------------------------------|-----------------------------------|
 |-9-9-9-9-9-9-9-9-9-9-9-9-9-9-9-9-|-9-9-9-9-9-9-9-9-9-9-9-9-9-9-9/----|
 |---------------------------------|-----------------------------------|
 |-7-7-7-7-7-7-7-7-7-7-7-7-7-7-7-7-|-7-7-7-7-7-7-7-7-7-7-7-7-7-7-7/----|
 |---------------------------------|-----------------------------------|

 


 "Cuz I'm now huffin gas..."


 


 

 
 |---------------------------------|-----------------------------------|
 |---------------------------------|-----------------------------------|
 |-7-7-7-7-7-7-7-7-7-7-7-7-7-7-7-7-|-7-7-7-7-7-7-7-7-7-7-7-7-7-7-7-7---|
 |---------------------------------|-----------------------------------|
 |-5-5-5-5-5-5-5-5-5-5-5-5-5-5-5-5-|-5-5-5-5-5-5-5-5-5-5-5-5-5-5-5-5---|
 |---------------------------------|-----------------------------------|

 


 "Buzz that I call you"


 


 

 
 ||----------------------------------|-----------------------------------||
 ||o-5-5-5-5-5-5-5-5-3-3-3-3-3-3-3-3-|-2-2-2-2-2-2-2-2-3-3-3-3-3-3-3-3--o||
 ||--2-2-2-2-2-2-2-2-2-2-2-2-2-2-2-2-|-2-2-2-2-2-2-2-2-2-2-2-2-2-2-2-2---||
 ||----------------------------------|-----------------------------------||
 ||o---------------------------------|----------------------------------o||
 ||----------------------------------|-----------------------------------||

 


 


 Verse 2


 

 
 ||----------|------------||---------------------------------|
 ||o5--------|-(5)-------o||---------------------------------|
 ||-2--------|-(2)--------||-9-9-9-9-9-9-9-9-9-9-9-9-9-9-9-9-|
 ||----------|------------||---------------------------------|
 ||o---------|-----------o||-7-7-7-7-7-7-7-7-7-7-7-7-7-7-7-7-|
 ||----------|------------||---------------------------------|

 


 "Fourteen hours..." "Toothpicks..."


 


 

 
 |--------------------------------|
 |--------------------------------|
 |-9-9-9-9-9-9-9-9-9-9-9-9-9-9-9/-|
 |--------------------------------|
 |-7-7-7-7-7-7-7-7-7-7-7-7-7-7-7/-|
 |--------------------------------|
 |---------------------------------|-----------------------------------|
 |---------------------------------|-----------------------------------|
 |-7-7-7-7-7-7-7-7-7-7-7-7-7-7-7-7-|-7-7-7-7-7-7-7-7-7-7-7-7-7-7-7-7---|
 |---------------------------------|-----------------------------------|
 |-5-5-5-5-5-5-5-5-5-5-5-5-5-5-5-5-|-5-5-5-5-5-5-5-5-5-5-5-5-5-5-5-5---|
 |---------------------------------|-----------------------------------|
 ||----------------------------------|-----------------------------------||
 ||o-5-5-5-5-5-5-5-5-3-3-3-3-3-3-3-3-|-2-2-2-2-2-2-2-2-3-3-3-3-3-3-3-3--o||
 ||--2-2-2-2-2-2-2-2-2-2-2-2-2-2-2-2-|-2-2-2-2-2-2-2-2-2-2-2-2-2-2-2-2---||
 ||----------------------------------|-----------------------------------||
 ||o---------------------------------|----------------------------------o||
 ||----------------------------------|-----------------------------------||

 


 "Fourteen hours unfed..."


 


 

 
 |---------------------------------|---------------------------------|
 |---------------------------------|---------------------------------|
 |-9-9-9-9-9-9-9-9-9-9-9-9-9-9-9-9-|-9-9-9-9-9-9-9-9-9-9-9-9-9-9-9/--|
 |---------------------------------|---------------------------------|
 |-7-7-7-7-7-7-7-7-7-7-7-7-7-7-7-7-|-7-7-7-7-7-7-7-7-7-7-7-7-7-7-7/--|
 |---------------------------------|---------------------------------|

 


 "I've got a painting in my head..."


 


 

 
 |---------------------------------|-----------------------------------|
 |---------------------------------|-----------------------------------|
 |-7-7-7-7-7-7-7-7-7-7-7-7-7-7-7-7-|-7-7-7-7-7-7-7-7-7-7-7-7-7-7-7-7---|
 |---------------------------------|-----------------------------------|
 |-5-5-5-5-5-5-5-5-5-5-5-5-5-5-5-5-|-5-5-5-5-5-5-5-5-5-5-5-5-5-5-5-5---|
 |---------------------------------|-----------------------------------|

 


 "I hate flying I said, That's what I said"


 


 Then play Chorus


 


 Outro


 

 
 ||----------------------------------|-----------------------------------||
 ||o-5-5-5-5-5-5-5-5-3-3-3-3-3-3-3-3-|-2-2-2-2-2-2-2-2-3-3-3-3-3-3-3-3--o||
 ||--2-2-2-2-2-2-2-2-2-2-2-2-2-2-2-2-|-2-2-2-2-2-2-2-2-2-2-2-2-2-2-2-2---||
 ||----------------------------------|-----------------------------------||
 ||o---------------------------------|----------------------------------o||
 ||----------------------------------|-----------------------------------||

 


 


 END ON:


 

 
 |------|
 |------|

 


 |-9~~~-


 

 
 |------

 


 |-7~~~-


 

 
 |------


Important: The song above is NOT stored on the Chordie server. The original song is hosted at www.guitaretab.com. Chordie works as a search engine and provides on-the-fly formatting. Chordie does not index songs against artists'/composers' will. To remove this song please click here.

This song is displayed as text-only. Transposing and tuning is only available for chordpro-songs.
Rate #1 of 1 versions

Login - add to songbook

SHARE PAGE  




You need to log in to post comments